Chelsea Grin - My Damnation tab

Band: Chelsea Grin
Album: My Damnation
Song: My Damnation

\=Slide down
/=Slide up
*=Palm mute
\  /=Whammy bar
 \/
~=I mainly used these to go with the rhythm, but with a v under it for vibrato.. 
just listen to the song..


0:00-0:16

|-------------------------------------||-------------------------------------||-------------------------------------||-8~----7~----------------------------||-5~-0--4~--1~0-0-0~-0~--1~000-0~0~---||-5~-0--4~--1~1-1-1~-1~--1~111-1~1~---| * * * * * *** * *
--------------------------------------|--------------------------------------|----------------3/4\3~------3---------|-8~----7~----4~-----------------------|-5~-0--4~-0--1~-1/2\1~0-2-1-1---------|-5~-0--4~-0--1~-------0-2-1---1h2-0~--| x2 * * * * *0:16-0:31
|---------------------------------------------------------------||---------------------------------------------------------------||----------------------------------------------------3/4\3~-----||---------------------------------------------------------------||-0000-0~0000-0~0000-0~11111111~0000-0~0000-0~0000-0~1/2\1~0~2~-||-1111-1~1111-1~1111-1~00000000~1111-1~1111-1~1111-1~------0~2~-| **** * **** * **** * ******** **** * **** * **** * * *
|---------------------------------------------------------------||---------------------------------------------------------------||----------------------------------------------------3/4\3~-----||---------------------------------------------------------------||-0000~0~0000~0~0000~0~11111111~0000-0~0000-0~0000-0~1/2\1~1~2~-||-1111~1~1111~1~1111~1~00000000~1111-1~1111-1~1111-1~------1~2~-| **** * **** * **** * ******** **** * **** * **** * * *
0:32-0:39
|----------------------------------------------------------------------||----------------------------------------------------------------------||-------3~---------------3~----------------3~---------------3~---------||-------1~---------------1~----------------1~---------------1~---------||-0~2~1~1~2~1~11---0~2~1~1~2~1~11/44-0~2~1~1~2~1~11---0~2~1~1~1~0~1~0--||-0~2~1~--2~1~--2~-0~2~1~--2~1~------0~2~1~--2~1~--2~-0~2~1~--2~1~2~1--| * * * * * * * * * * * * * * * * * * * * * *
0:40-0:41
|--------||--------||-3~~4~~-||-1~~2~~-||-1~~2~~-||-1~~2~~-|
0:42-0:57
|-----------------------------------------------------||-----------------------------------------------------||-----------------------------------------------------||-----------------------------------------------------||-0~2~1------2~1---1----------2~1------2~1~0~1--------||-0~2~1------2~1---1----------2~1------2~1~0~1-1/5~~--| x2 * * * * * * * * * * * * v
0:58-1:14
|---------------------------------------------||---------------------------------------------||---------------------------------------------||---------------------------------------------||-0000~0000~0000------0000~0000~0000~0~0~0~0--||-1111~1111~1111------1111~1111~1111~1~1~1~1--| x4 **** **** **** **** **** **** * * * *
1:16-1:31
|--------------------------------------------------------------------------||--------------------------------------------------------------------------||--------------------------------------------------------------------------||--------------------------------------------------------------------------||-0000~0000~0000~~0000~0000~0000~000~---0000~0000~~0000~0000~0000~0~0~0~0--||-1111~1111~1111~~1111~1111~1111~111~2~~1111~1111~~1111~1111~1111~1~1~1~1--| x2 **** **** **** **** **** **** *** b **** **** **** **** **** * * * *
1:32-1:47|---------------------------------------------------------------||---------------------------------------------------------------||---------------------------------------------------------------||-3~----3~----3~~~----3~----3~--4~----4~----4~~~----4~----4~----||-1~0-1-1~0-1-1~~~0-1-1~0-1-1~0-2~1-2-2~1-2-2~~~1-2-2~1-2-2~1~--||---0-1---0-1-----0-1---0-1---1---1-2---1-2-----1-2---1-2---2~--| x2 * * * * * * * * * * * * * * * * * *
1:48-1:51
|--------------------------------/16h18-----------------------||-\16-15--------\16-15----------------------------------------||--------16-15~~-------16-15~\----------15h16p15p13\----/15~~-||---------------------------------------------------\--/------||----------------------------------------------------\/-------||-------------------------------------------------------------|
1:52-1:55
|---------------------------------------------||-7h9p7p6-7---6-------------------------------||-----------8---8-7-4-4p3\1-3~1---------------||---------------------*-----*---4-3-1-3-4-3~~-||---------------------------------------------||---------------------------------------------|
1:56-2:03
|---------------------------------------------------------------18/19-18-18~~~--||-----------------------------------------11~~~12-11/16~~~15-16-----------------||-/4-3-4/7~~~/4-3-4/10~~~8-11-10~~~/11-10---------------------------------------||-------------------------------------------------------------------------------||-------------------------------------------------------------------------------||-------------------------------------------------------------------------------|
2:04-2:19
|-------------------------------------------------------------||-------------------------------------------------------------||-------------------------------------------------------------||-------------------------------------------------------------||-1111111111111111------------22222222222222225555555522222222||-----------------333333331111--------------------------------|
--------------------------------------------------------| --------------------------------------------------------| ---------------------------------------------3/4\3~-----| --------------------------------------------------------| 1111111111111111------------2222222222222222-2/3\2~1-2--| ----------------333333331111-----------------------1-2--| * *
2:20-2:21
|------------||------------||------------||------------||-0000~0000--||-1111~1111--| **** ****
2:22-2:37
|-----------------------------------------||-----------------------------------------||-----------------------------------3~3~--||-----------------------------------1~1~--||-2222~1111~0000---2222~1111~0000~0-1~1~--||-2222~1111~0000---2222~1111~0000~1-------| x4 **** **** **** **** **** **** *
2:38-2:39
|----------------------||----------------------||----------------------||----------------------||-0000~0000~0000~0000--||-1111~1111~1111~1111--| **** **** **** ****
2:40-2:49
|---------------------------------------------------------||---------------------------------------------------------||---------------------------------------------------------||---------------------------------------------------------||-0~2~1------2~1----1-------------2~1------2~1~0~1--------||-0~2~1------2~1----1-------------2~1------2~1~0~1-1/5~~--| * * * * * * * * * * * * v
2:50-2:55
|---------------------------------------------------------||---------------------------------------------------------||---------------------------------------------------------||---------------------------------------------------------||-0~2~1------2~1----1-------------2~1------2~1~0~1--------||-0~2~1--0~--2~1----1-------------2~1------2~1~0~1-1/5~~--| * * * _ * * * * * * * * * v \ \ \/
2:56-3:11
|---------------------------------------------------------||---------------------------------------------------------||---------------------------------------------------------||---------------------------------------------------------||-0~2~1------2~1----1-------------2~1------2~1~0~1--------||-0~2~1------2~1----1-------------2~1------2~1~0~1-1/5~~--| * * * * * * * * * * * * v
3:12
|--------||--------||--------||--------||-0~2~1--||-0~2~1--| * * *
3:15-3:30
|------------------------------||------------------------------||------------------------------||-8~----7~~---8~----7~----4~~--||-5~-0--4~~---5~-0--4~-0--1~~--||-5~-0--4~~---5~-0--4~-0--1~~--| x2 * * *
3:31-3:39
|-----||-----||-----||-4~--||-1~--||-1~--| Fade out (Feedback)
3:40-3:49
|-------------------------------------------------------------------------||-------------------------------------------------------------------------||-------------------------------------------------------------------------||-------------------------------------------------------------------------||-0~0000~0---0---0---0---0~0000~0000~-0~0000~0---0---0---0---0~-----------||-1~1111~1---1---1---1---1~1111~1111~-1~1111~1---1---1---1---1~--0~-0~----| * **** * * * * * **** **** * **** * * * * *
3:50-3:59
|----------------------------------------------------------------------------||----------------------------------------------------------------------------||----------------------------------------------------------------------------||----------------------------------------------------------------------------||----0~0~0~-0---0---0---0---0~0000~0000~-0~0000~0---0---0---0---0~-----------||-1~-1~1~1~-1---1---1---1---1~1111~1111~-1~1111~1---1---1---1---1~--0~-(0~)--| * * * * * * * * **** **** * **** * * * * *
4:00-4:18
|-------------------------------------------------------------------------||-------------------------------------------------------------------------||-------------------------------------------------------------------------||-------------------------------------------------------------------------||-0~0000~0~~-0~~-0~~-0~~-0~0000-0000--0~0000~0~~-0~~-0~~-0~~-0~-----------||-1~1111~1~~-1~~-1~~-1~~-1~1111-1111--1~1111~1~~-1~~-1~~-1~~-1~--0~-(0~)--| x2 * **** * * * * * **** **** * **** * * * * *
4:19-4:35
|--------------------||--------------------||--------------------||---------------0~~--||-0~0000~0~~-0~-0~~--||-1~1111~1~~-1~-0~~--| Fade out * **** * *
Lyrics: My Damnation Look through my eyes and you decide if I'm a human being My soul was ripped from me Take me away I'll go down to the depths of this nightmare made real Taunted by demons their voices so shrill I can feel the agony of the tortured souls tormenting me Exhume my mangled flesh and take me away from this death Liberate me Please! This wasn't meant to be Oh dear god my eyes burned through my head Why can I still see? Stop the flow of my beating heart Suck the air from my blackened lungs And now you can see What I came to be You too will die And forever burn with me Burn with me Make my soul cease to exist My damnation Follow me to the depths My damnation now My damnation Cleanse my soul of sin Oh god please save me Cleanse my soul of sin Fuck Take me away from this This should be 99.99% correct in most parts
Tap to rate this tab
 
# A B C D E F G H I J K L M N O P Q R S T U V W X Y Z