Prima Donna tab with lyrics by Chevelle - Easy chords and tabs for guitar

Chevelle – Prima Donna tab

Artist: Chevelle
Song: Prima Donna
Album: Hats Off To The Bull
Tabbed by: MetalSlayer09
Tuning: Drop B

intro


|------------------------------------------------------------------------------------------------||------------------------------------------------------------------------------------------------||-14-14-12-14-15-14-12-14-14--14-14-14-12-12-12-11-11-11-11-11-11-11-11-11-11-11-11-11-11-11-11--||------------------------------------------------------------------------------------------------||-12-12-10-12-13-12-10-12-12--12-12-12-10-10-10-9--9--9--9--9--9--9--9--9--9--9--9--9--9--9--9---||------------------------------------------------------------------------------------------------|
|------------------------------------------------------------------------------------------------||------------------------------------------------------------------------------------------------||-14-14-12-14-15-14-12-14-14--14-14-14-12-12-12-11-11-11-11-11-11-11-11-11-11-11-11-11-11-11-11--||------------------------------------------------------------------------------------------------||-12-12-10-12-13-12-10-12-12--12-12-12-10-10-10-9--9--9--9--9--9--9--9--9--9--9--9--9--9--9--9---||------------------------------------------------------------------------------------------------|
verse
|-------------------------------------------------------------||-------------------------------------------------------------||-11-11-11-11-11-11-11-11-11-11-11-11-11-11-11-11-7-7-7-7-7-7-||-9--9--9--9--9--9--9--9--9--9--9--9--9--9--9--9--5-5-5-5-5-5-||-9--9--9--9--9--9--9--9--9--9--9--9--9--9--9--9--5-5-5-5-5-5-||-9--9--9--9--9--9--9--9--9--9--9--9--9--9--9--9--5-5-5-5-5-5-|
|------------||---3---2h3--||---2--------||-0-0-0-0----||-0-0-0------||-0---0------|
|-------------------------------------------------------------||-------------------------------------------------------------||-11-11-11-11-11-11-11-11-11-11-11-11-11-11-11-11-7-7-7-7-7-7-||-9--9--9--9--9--9--9--9--9--9--9--9--9--9--9--9--5-5-5-5-5-5-||-9--9--9--9--9--9--9--9--9--9--9--9--9--9--9--9--5-5-5-5-5-5-||-9--9--9--9--9--9--9--9--9--9--9--9--9--9--9--9--5-5-5-5-5-5-|
|------------------||------------------||-4-4-4-4-4-4-4-4--||-2-2-2-2-2-2-2-2--||-2-2-2-2-2-2-2-2--||-2-2-2-2-2-2-2-2--|
|-----------------------------------------------------------------||-----------------------------------------------------------------||-2-2-2-2-2-2-2-2-4-4-4-4-4-4-4-4-7-7-7-7-7-7-7-7-7-7-7-7-7-7-7-7-||-0-0-0-0-0-0-0-0-2-2-2-2-2-2-2-2-5-5-5-5-5-5-7-7-7-7-7-7-7-7-7-7-||-0-0-0-0-0-0-0-0-2-2-2-2-2-2-2-2-5-5-5-5-5-5-5-5-5-5-5-5-5-5-5-5-||-0-0-0-0-0-0-0-0-2-2-2-2-2-2-2-2-5-5-5-5-5-5---------------------|
|-----------------------------------------------------------------||-----------------------------------------------------------------||-2-2-2-2-2-2-2-2-4-4-4-4-4-4-4-4-7-7-7-7-7-7-7-7-7-7-7-7-7-7-7-7-||-0-0-0-0-0-0-0-0-2-2-2-2-2-2-2-2-5-5-5-5-5-5-7-7-7-7-7-7-7-7-7-7-||-0-0-0-0-0-0-0-0-2-2-2-2-2-2-2-2-5-5-5-5-5-5-5-5-5-5-5-5-5-5-5-5-||-0-0-0-0-0-0-0-0-2-2-2-2-2-2-2-2-5-5-5-5-5-5---------------------|
Chorus
|--------------------------------------------------------------||--------------------------------------------------------------||-11-11-9-9-7-7-7-7-7-7-7-7-7-7--11-11-9-9-7-7-7-7-7-7-7-7-7-7-||-9--9--7-7-5-5-5-5-5-5-5-5-5-5--9--9--7-7-5-5-5-5-5-5-5-5-5-5-||-9--9--7-7-5-5-5-5-5-5-5-5-5-5--9--9--7-7-5-5-5-5-5-5-5-5-5-5-||-9--9--7-7-5-5-5-5-5-5-5-5-5-5--9--9--7-7-5-5-5-5-5-5-5-5-5-5-|
|------------------------------------------------------||------------------------------------------------------||-14-14-9-9-7-7-7-7-7-7-7-7-7-7--11-11-9-9-7-----------||-12-12-7-7-5-5-5-5-5-5-5-5-5-5--9--9--7-7-5-5-5-5-5-5-||-12-12-7-7-5-5-5-5-5-5-5-5-5-5--9--9--7-7-5-5-5-5-5-5-||-12-12-7-7-5-5-5-5-5-5-5-5-5-5--9--9--7-7-5-5-5-5-5-5-|
preverse
|------------------------------------------------------------------------------------------------||------------------------------------------------------------------------------------------------||-14-14-12-14-15-14-12-14-14--14-14-14-12-12-12-11-11-11-11-11-11-11-11-11-11-11-11-11-11-11-11--||------------------------------------------------------------------------------------------------||-12-12-10-12-13-12-10-12-12--12-12-12-10-10-10-9--9--9--9--9--9--9--9--9--9--9--9--9--9--9--9---||------------------------------------------------------------------------------------------------|
|------------------------------------------------------------------------------------------------||------------------------------------------------------------------------------------------------||-14-14-12-14-15-14-12-14-14--14-14-14-12-12-12-11-11-11-11-11-11-11-11-11-11-11-11-11-11-11-11--||------------------------------------------------------------------------------------------------||-12-12-10-12-13-12-10-12-12--12-12-12-10-10-10-9--9--9--9--9--9--9--9--9--9--9--9--9--9--9--9---||------------------------------------------------------------------------------------------------|
verse
|-------------------------------------------------------------||-------------------------------------------------------------||-11-11-11-11-11-11-11-11-11-11-11-11-11-11-11-11-7-7-7-7-7-7-||-9--9--9--9--9--9--9--9--9--9--9--9--9--9--9--9--5-5-5-5-5-5-||-9--9--9--9--9--9--9--9--9--9--9--9--9--9--9--9--5-5-5-5-5-5-||-9--9--9--9--9--9--9--9--9--9--9--9--9--9--9--9--5-5-5-5-5-5-|
|------------||---3---2h3--||---2--------||-0-0-0-0----||-0-0-0------||-0---0------|
|-------------------------------------------------------------||-------------------------------------------------------------||-11-11-11-11-11-11-11-11-11-11-11-11-11-11-11-11-7-7-7-7-7-7-||-9--9--9--9--9--9--9--9--9--9--9--9--9--9--9--9--5-5-5-5-5-5-||-9--9--9--9--9--9--9--9--9--9--9--9--9--9--9--9--5-5-5-5-5-5-||-9--9--9--9--9--9--9--9--9--9--9--9--9--9--9--9--5-5-5-5-5-5-|
|------------------||------------------||-4-4-4-4-4-4-4-4--||-2-2-2-2-2-2-2-2--||-2-2-2-2-2-2-2-2--||-2-2-2-2-2-2-2-2--|
|-----------------------------------------------------------------||-----------------------------------------------------------------||-2-2-2-2-2-2-2-2-4-4-4-4-4-4-4-4-7-7-7-7-7-7-7-7-7-7-7-7-7-7-7-7-||-0-0-0-0-0-0-0-0-2-2-2-2-2-2-2-2-5-5-5-5-5-5-7-7-7-7-7-7-7-7-7-7-||-0-0-0-0-0-0-0-0-2-2-2-2-2-2-2-2-5-5-5-5-5-5-5-5-5-5-5-5-5-5-5-5-||-0-0-0-0-0-0-0-0-2-2-2-2-2-2-2-2-5-5-5-5-5-5---------------------|
|-----------------------------------------------------------------||-----------------------------------------------------------------||-2-2-2-2-2-2-2-2-4-4-4-4-4-4-4-4-7-7-7-7-7-7-7-7-7-7-7-7-7-7-7-7-||-0-0-0-0-0-0-0-0-2-2-2-2-2-2-2-2-5-5-5-5-5-5-7-7-7-7-7-7-7-7-7-7-||-0-0-0-0-0-0-0-0-2-2-2-2-2-2-2-2-5-5-5-5-5-5-5-5-5-5-5-5-5-5-5-5-||-0-0-0-0-0-0-0-0-2-2-2-2-2-2-2-2-5-5-5-5-5-5---------------------|
Chorus
|--------------------------------------------------------------||--------------------------------------------------------------||-11-11-9-9-7-7-7-7-7-7-7-7-7-7--11-11-9-9-7-7-7-7-7-7-7-7-7-7-||-9--9--7-7-5-5-5-5-5-5-5-5-5-5--9--9--7-7-5-5-5-5-5-5-5-5-5-5-||-9--9--7-7-5-5-5-5-5-5-5-5-5-5--9--9--7-7-5-5-5-5-5-5-5-5-5-5-||-9--9--7-7-5-5-5-5-5-5-5-5-5-5--9--9--7-7-5-5-5-5-5-5-5-5-5-5-|
|----------------------------------------------------------------||----------------------------------------------------------------||-14-14-9-9-7-7-7-7-7-7-7-7-7-7--11-11-9-9-7---------------------||-12-12-7-7-5-5-5-5-5-5-5-5-5-5--9--9--7-7-5-5-5-5-5-5-5-5-5-7-7-||-12-12-7-7-5-5-5-5-5-5-5-5-5-5--9--9--7-7-5-5-5-5-5-5-5-5-5-7-7-||-12-12-7-7-5-5-5-5-5-5-5-5-5-5--9--9--7-7-5-5-5-5-5-5-5-5-5-7-7-|
interlude
|-------------------------------------------------||-------------------------------------------------||-7-7-7-7-7-7-7-7-7-7-7-7-7-7-7-7-7-7-------------||-5-5-5-5-5-5-5-5-5-5-5-5-7-7-7-7-7-7-7-7-7-7-7-7-||-5-5-5-5-5-5-5-5-5-5-5-5-5-5-5-5-5-5-7-7-7-7-7-7-||-5-5-5-5-5-5-5-5-5-5-5-5-------------7-7-7-7-7-7-|
|-------------------------------------------------||-------------------------------------------------||-7-7-7-7-7-7-7-7-7-7-7-7-7-7-7-7-7-7-------------||-5-5-5-5-5-5-5-5-5-5-5-5-7-7-7-7-7-7-7-7-7-7-7-7-||-5-5-5-5-5-5-5-5-5-5-5-5-5-5-5-5-5-5-7-7-7-7-7-7-||-5-5-5-5-5-5-5-5-5-5-5-5-------------7-7-7-7-7-7-|
|-------------------------------------------------||-------------------------------------------------||-7-7-7-7-7-7-7-7-7-7-7-7-7-7-7-7-7-7-------------||-5-5-5-5-5-5-5-5-5-5-5-5-7-7-7-7-7-7-7-7-7-7-7-7-||-5-5-5-5-5-5-5-5-5-5-5-5-5-5-5-5-5-5-7-7-7-7-7-7-||-5-5-5-5-5-5-5-5-5-5-5-5-------------7-7-7-7-7-7-|
|-------------------------------------------------||-------------------------------------------------||-7-7-7-7-7-7-7-7-7-7-7-7-7-7-7-7-7-7-------------||-5-5-5-5-5-5-5-5-5-5-5-5-7-7-7-7-7-7-7-7-7-7-7-7-||-5-5-5-5-5-5-5-5-5-5-5-5-5-5-5-5-5-5-7-7-7-7-7-7-||-5-5-5-5-5-5-5-5-5-5-5-5-------------7-7-7-7-7-7-|
Chorus
|--------------------------------------------------------------||--------------------------------------------------------------||-11-11-9-9-7-7-7-7-7-7-7-7-7-7--11-11-9-9-7-7-7-7-7-7-7-7-7-7-||-9--9--7-7-5-5-5-5-5-5-5-5-5-5--9--9--7-7-5-5-5-5-5-5-5-5-5-5-||-9--9--7-7-5-5-5-5-5-5-5-5-5-5--9--9--7-7-5-5-5-5-5-5-5-5-5-5-||-9--9--7-7-5-5-5-5-5-5-5-5-5-5--9--9--7-7-5-5-5-5-5-5-5-5-5-5-|
|------------------------------------------------------------------||------------------------------------------------------------------||-14-14-9-9-7-7-7-7-7-7-7-7-7-7--11-11-9-9-7-----------------------||-12-12-7-7-5-5-5-5-5-5-5-5-5-5--9--9--7-7-5-5-5-5-5-5-5-5-5-7-7-5-||-12-12-7-7-5-5-5-5-5-5-5-5-5-5--9--9--7-7-5-5-5-5-5-5-5-5-5-7-7-5-||-12-12-7-7-5-5-5-5-5-5-5-5-5-5--9--9--7-7-5-5-5-5-5-5-5-5-5-7-7-5-|
Please rate this tab:
x1.0