Clones tab with lyrics by Chevelle - Easy chords and tabs for guitar

Chevelle – Clones tab

Artist: Chevelle
Song: clones
Album:  Hats off to the bull
Tabbed by: MetalSlayer09
Tuning: Drop c

distortion|---------------------------------------------------------------------------------||---------------------------------------------------------------------------------||---------------------------------10-10-10-10-10-10-10-10-------------------------||-0-0-0-0-0-0-0-0-8-8-8-8-8-8-8-8-10-10-10-10-10-10-10-10-10-10-10-10-10-10-10-10-||-0-0-0-0-0-0-0-0-8-8-8-8-8-8-8-8-8--8--8--8--8--8--8--8--10-10-10-10-10-10-10-10-||-0-0-0-0-0-0-0-0-8-8-8-8-8-8-8-8-------------------------10-10-10-10-10-10-10-10-|
|-----------------------------------------------------------------||-----------------------------------------------------------------||-----------------------------------------------------------------||-0-0-0-0-0-0-0-0-8-8-8-8-8-8-8-8-3-3-3-3-3-3-3-3-5-5-5-5-5-5-5-5-||-0-0-0-0-0-0-0-0-8-8-8-8-8-8-8-8-3-3-3-3-3-3-3-3-5-5-5-5-5-5-5-5-||-0-0-0-0-0-0-0-0-8-8-8-8-8-8-8-8-3-3-3-3-3-3-3-3-5-5-5-5-5-5-5-5-|
not so distortion|-----------------------------------------------------------------||-----------------------------------------------------------------||-----------------------------------------10-10-10-10-10-10-10-10-||-------------------------8-8-8-8-8-8-8-8-10-10-10-10-10-10-10-10-||-12-12-12-12-12-12-12-12-8-8-8-8-8-8-8-8-8--8--8--8--8--8--8--8--||-0--0--0--0--0--0--0--0--8-8-8-8-8-8-8-8-------------------------|
|--------------------------------------------------||--------------------------------------------------||--------------------------------------------------||-10-10-10-10-10-10-10-10--------------------------||-10-10-10-10-10-10-10-10-12-12-12-12-12-12-12-12--||-10-10-10-10-10-10-10-10-0--0--0--0--0--0--0--0---|
|-------------------------------------------------||-------------------------------------------------||-------------------------------------------------||-8-8-8-8-8-8-8-8-3-3-3-3-3-3-3-3-5-5-5-5-5-5-5-5-||-8-8-8-8-8-8-8-8-3-3-3-3-3-3-3-3-5-5-5-5-5-5-5-5-||-8-8-8-8-8-8-8-8-3-3-3-3-3-3-3-3-5-5-5-5-5-5-5-5-|
|-----------------------------------------------------------------------------||-----------------------------------------------------------------------------||-----------------------------10-10-10-10-10-10-10-10-------------------------||-------------8-8-8-8-8-8-8-8-10-10-10-10-10-10-10-10-10-10-10-10-10-10-10-10-||-12-13-12-10-8-8-8-8-8-8-8-8-8--8--8--8--8--8--8--8--10-10-10-10-10-10-10-10-||-0--0--0--0--8-8-8-8-8-8-8-8-------------------------10-10-10-10-10-10-10-10-|
|-------------------------------------------------------------------------||-------------------------------------------------------------------------||-------------------------------------------------------------------------||-------------------------8-8-8-8-8-8-8-8-3-3-3-3-3-3-3-3-5-5-5-5-5-5-5-5-||-12-12-12-12-12-12-12-12-8-8-8-8-8-8-8-8-3-3-3-3-3-3-3-3-5-5-5-5-5-5-5-5-||-0--0--0--0--0--0--0--0--8-8-8-8-8-8-8-8-3-3-3-3-3-3-3-3-5-5-5-5-5-5-5-5-|
distortion again
|---------------------------------------------------------------------------------||---------------------------------------------------------------------------------||---------------------------------10-10-10-10-10-10-10-10-------------------------||-0-0-0-0-0-0-0-0-8-8-8-8-8-8-8-8-10-10-10-10-10-10-10-10-10-10-10-10-10-10-10-10-||-0-0-0-0-0-0-0-0-8-8-8-8-8-8-8-8-8--8--8--8--8--8--8--8--10-10-10-10-10-10-10-10-||-0-0-0-0-0-0-0-0-8-8-8-8-8-8-8-8-------------------------10-10-10-10-10-10-10-10-|
|-----------------------------------------------------------------||-----------------------------------------------------------------||-----------------------------------------------------------------||-0-0-0-0-0-0-0-0-8-8-8-8-8-8-8-8-3-3-3-3-3-3-3-3-5-5-5-5-5-5-5-5-||-0-0-0-0-0-0-0-0-8-8-8-8-8-8-8-8-3-3-3-3-3-3-3-3-5-5-5-5-5-5-5-5-||-0-0-0-0-0-0-0-0-8-8-8-8-8-8-8-8-3-3-3-3-3-3-3-3-5-5-5-5-5-5-5-5-|
|---------------------------------------------------------------------------------||---------------------------------------------------------------------------------||---------------------------------10-10-10-10-10-10-10-10-------------------------||-0-0-0-0-0-0-0-0-8-8-8-8-8-8-8-8-10-10-10-10-10-10-10-10-10-10-10-10-10-10-10-10-||-0-0-0-0-0-0-0-0-8-8-8-8-8-8-8-8-8--8--8--8--8--8--8--8--10-10-10-10-10-10-10-10-||-0-0-0-0-0-0-0-0-8-8-8-8-8-8-8-8-------------------------10-10-10-10-10-10-10-10-|
|-----------------------------------------------------------------||-----------------------------------------------------------------||-----------------------------------------------------------------||-0-0-0-0-0-0-0-0-8-8-8-8-8-8-8-8-3-3-3-3-3-3-3-3-5-5-5-5-5-5-5-5-||-0-0-0-0-0-0-0-0-8-8-8-8-8-8-8-8-3-3-3-3-3-3-3-3-5-5-5-5-5-5-5-5-||-0-0-0-0-0-0-0-0-8-8-8-8-8-8-8-8-3-3-3-3-3-3-3-3-5-5-5-5-5-5-5-5-|
not so distortion|-----------------------------------------------------------------||-----------------------------------------------------------------||-----------------------------------------10-10-10-10-10-10-10-10-||-------------------------8-8-8-8-8-8-8-8-10-10-10-10-10-10-10-10-||-12-12-12-12-12-12-12-12-8-8-8-8-8-8-8-8-8--8--8--8--8--8--8--8--||-0--0--0--0--0--0--0--0--8-8-8-8-8-8-8-8-------------------------|
|--------------------------------------------------||--------------------------------------------------||--------------------------------------------------||-10-10-10-10-10-10-10-10--------------------------||-10-10-10-10-10-10-10-10-12-12-12-12-12-12-12-12--||-10-10-10-10-10-10-10-10-0--0--0--0--0--0--0--0---|
|-------------------------------------------------||-------------------------------------------------||-------------------------------------------------||-8-8-8-8-8-8-8-8-3-3-3-3-3-3-3-3-5-5-5-5-5-5-5-5-||-8-8-8-8-8-8-8-8-3-3-3-3-3-3-3-3-5-5-5-5-5-5-5-5-||-8-8-8-8-8-8-8-8-3-3-3-3-3-3-3-3-5-5-5-5-5-5-5-5-|
|-----------------------------------------------------------------------------||-----------------------------------------------------------------------------||-----------------------------10-10-10-10-10-10-10-10-------------------------||-------------8-8-8-8-8-8-8-8-10-10-10-10-10-10-10-10-10-10-10-10-10-10-10-10-||-12-13-12-10-8-8-8-8-8-8-8-8-8--8--8--8--8--8--8--8--10-10-10-10-10-10-10-10-||-0--0--0--0--8-8-8-8-8-8-8-8-------------------------10-10-10-10-10-10-10-10-|
|-------------------------------------------------------------------------||-------------------------------------------------------------------------||-------------------------------------------------------------------------||-------------------------8-8-8-8-8-8-8-8-3-3-3-3-3-3-3-3-5-5-5-5-5-5-5-5-||-12-12-12-12-12-12-12-12-8-8-8-8-8-8-8-8-3-3-3-3-3-3-3-3-5-5-5-5-5-5-5-5-||-0--0--0--0--0--0--0--0--8-8-8-8-8-8-8-8-3-3-3-3-3-3-3-3-5-5-5-5-5-5-5-5-|
distortion again
|---------------------------------------------------------------------------------||---------------------------------------------------------------------------------||---------------------------------10-10-10-10-10-10-10-10-------------------------||-0-0-0-0-0-0-0-0-8-8-8-8-8-8-8-8-10-10-10-10-10-10-10-10-10-10-10-10-10-10-10-10-||-0-0-0-0-0-0-0-0-8-8-8-8-8-8-8-8-8--8--8--8--8--8--8--8--10-10-10-10-10-10-10-10-||-0-0-0-0-0-0-0-0-8-8-8-8-8-8-8-8-------------------------10-10-10-10-10-10-10-10-|
|-----------------------------------------------------------------||-----------------------------------------------------------------||-----------------------------------------------------------------||-0-0-0-0-0-0-0-0-8-8-8-8-8-8-8-8-3-3-3-3-3-3-3-3-5-5-5-5-5-5-5-5-||-0-0-0-0-0-0-0-0-8-8-8-8-8-8-8-8-3-3-3-3-3-3-3-3-5-5-5-5-5-5-5-5-||-0-0-0-0-0-0-0-0-8-8-8-8-8-8-8-8-3-3-3-3-3-3-3-3-5-5-5-5-5-5-5-5-|
|---------------------------------------------------------------------------------||---------------------------------------------------------------------------------||---------------------------------10-10-10-10-10-10-10-10-------------------------||-0-0-0-0-0-0-0-0-8-8-8-8-8-8-8-8-10-10-10-10-10-10-10-10-10-10-10-10-10-10-10-10-||-0-0-0-0-0-0-0-0-8-8-8-8-8-8-8-8-8--8--8--8--8--8--8--8--10-10-10-10-10-10-10-10-||-0-0-0-0-0-0-0-0-8-8-8-8-8-8-8-8-------------------------10-10-10-10-10-10-10-10-|
|-----------------------------------------------------------------||-----------------------------------------------------------------||-----------------------------------------------------------------||-0-0-0-0-0-0-0-0-8-8-8-8-8-8-8-8-3-3-3-3-3-3-3-3-5-5-5-5-5-5-5-5-||-0-0-0-0-0-0-0-0-8-8-8-8-8-8-8-8-3-3-3-3-3-3-3-3-5-5-5-5-5-5-5-5-||-0-0-0-0-0-0-0-0-8-8-8-8-8-8-8-8-3-3-3-3-3-3-3-3-5-5-5-5-5-5-5-5-|
interlude/solo build up
|-------------------------------------------------------------||-------------------------------------------------------------||-------------------------------------------7-7-7-7-7-7-7-7-7-||-8-8-8-8-8-8-8-8-8-10-10-10-10-10-10-10-10-7-7-7-7-7-7-7-7-7-||-8-8-8-8-8-8-8-8-8-10-10-10-10-10-10-10-10-5-5-5-5-5-5-5-5-5-||-8-8-8-8-8-8-8-8-8-10-10-10-10-10-10-10-10-------------------|
|----------------------------------------------------------------------------||----------------------------------------------------------------------------||----------------------------------------------------------------------------||-7-7-7-7-7-7-7-7-8-8-8-8-8-8-8-8-10-10-10-10-10-10-10-10-5-5-5-5-5-5-5-5--5-||-7-7-7-7-7-7-7-7-8-8-8-8-8-8-8-8-10-10-10-10-10-10-10-10-5-5-5-5-5-5-5-5--5-||-7-7-7-7-7-7-7-7-8-8-8-8-8-8-8-8-10-10-10-10-10-10-10-10-5-5-5-5-5-5-5-5--5-|
solo
|--------------------------------------------------||-10-10-10-10-10-10-10-10-10-10-10-10-10-10-10-10--||-7--7--7--7--7--7--7--7--7--7--7--7--7--7--7--7---||--------------------------------------------------||--------------------------------------------------||--------------------------------------------------|
|--------------------------------------------------||--------------------------------------------------||-9--9--9--9--9--9--9--9--12-12-12-12-12-12-12-12--||-10-10-10-10-10-10-10-10-10-10-10-10-10-10-10-10--||--------------------------------------------------||--------------------------------------------------|
|--------------------------------------------------||--------------------------------------------------||-10-10-10-10-10-10-10-10-10-10-10-10-10-10-10-10--||-7--7--7--7--7--7--7--7--7--7--7--7--7--7--7--7---||--------------------------------------------------||--------------------------------------------------|
|----------------------------------||----------------------------------||----------------------------------||-10-10-10-10-10-10-10-10-9-9-9\/--||-8--8--8--8--8--8--8--8--7-7-7\/--||----------------------------------|
|--------------------------------------------------||-10-10-10-10-10-10-10-10-10-10-10-10-10-10-10-10--||-7--7--7--7--7--7--7--7--7--7--7--7--7--7--7--7---||--------------------------------------------------||--------------------------------------------------||--------------------------------------------------|
|--------------------------------------------------||--------------------------------------------------||-9--9--9--9--9--9--9--9--12-12-12-12-12-12-12-12--||-10-10-10-10-10-10-10-10-10-10-10-10-10-10-10-10--||--------------------------------------------------||--------------------------------------------------|
|--------------------------------------------------||--------------------------------------------------||-10-10-10-10-10-10-10-10-10-10-10-10-10-10-10-10--||-7--7--7--7--7--7--7--7--7--7--7--7--7--7--7--7---||--------------------------------------------------||--------------------------------------------------|
|----------------------------------||----------------------------------||----------------------------------||-10-10-10-10-10-10-10-10-9-9-9\/--||-8--8--8--8--8--8--8--8--7-7-7\/--||----------------------------------|
prechorus
|-----------------------------------------------------------------||-----------------------------------------------------------------||-----------------------------------------10-10-10-10-10-10-10-10-||-------------------------8-8-8-8-8-8-8-8-10-10-10-10-10-10-10-10-||-12-12-12-12-12-12-12-12-8-8-8-8-8-8-8-8-8--8--8--8--8--8--8--8--||-0--0--0--0--0--0--0--0--8-8-8-8-8-8-8-8-------------------------|
|--------------------------------------------------||--------------------------------------------------||--------------------------------------------------||-10-10-10-10-10-10-10-10--------------------------||-10-10-10-10-10-10-10-10-12-12-12-12-12-12-12-12--||-10-10-10-10-10-10-10-10-0--0--0--0--0--0--0--0---|
|-------------------------------------------------||-------------------------------------------------||-------------------------------------------------||-8-8-8-8-8-8-8-8-3-3-3-3-3-3-3-3-5-5-5-5-5-5-5-5-||-8-8-8-8-8-8-8-8-3-3-3-3-3-3-3-3-5-5-5-5-5-5-5-5-||-8-8-8-8-8-8-8-8-3-3-3-3-3-3-3-3-5-5-5-5-5-5-5-5-|
|-----------------------------------------------------------------||-----------------------------------------------------------------||-----------------------------------------10-10-10-10-10-10-10-10-||-------------------------8-8-8-8-8-8-8-8-10-10-10-10-10-10-10-10-||-12-12-12-12-12-12-12-12-8-8-8-8-8-8-8-8-8--8--8--8--8--8--8--8--||-0--0--0--0--0--0--0--0--8-8-8-8-8-8-8-8-------------------------|
|--------------------------------------------------||--------------------------------------------------||--------------------------------------------------||-10-10-10-10-10-10-10-10--------------------------||-10-10-10-10-10-10-10-10-12-12-12-12-12-12-12-12--||-10-10-10-10-10-10-10-10-0--0--0--0--0--0--0--0---|
|-------------------------------------------------||-------------------------------------------------||-------------------------------------------------||-8-8-8-8-8-8-8-8-3-3-3-3-3-3-3-3-5-5-5-5-5-5-5-5-||-8-8-8-8-8-8-8-8-3-3-3-3-3-3-3-3-5-5-5-5-5-5-5-5-||-8-8-8-8-8-8-8-8-3-3-3-3-3-3-3-3-5-5-5-5-5-5-5-5-|
chorus
|---------------------------------------------------------------------------------||---------------------------------------------------------------------------------||---------------------------------10-10-10-10-10-10-10-10-------------------------||-0-0-0-0-0-0-0-0-8-8-8-8-8-8-8-8-10-10-10-10-10-10-10-10-10-10-10-10-10-10-10-10-||-0-0-0-0-0-0-0-0-8-8-8-8-8-8-8-8-8--8--8--8--8--8--8--8--10-10-10-10-10-10-10-10-||-0-0-0-0-0-0-0-0-8-8-8-8-8-8-8-8-------------------------10-10-10-10-10-10-10-10-|
|-----------------------------------------------------------------||-----------------------------------------------------------------||-----------------------------------------------------------------||-0-0-0-0-0-0-0-0-8-8-8-8-8-8-8-8-3-3-3-3-3-3-3-3-5-5-5-5-5-5-5-5-||-0-0-0-0-0-0-0-0-8-8-8-8-8-8-8-8-3-3-3-3-3-3-3-3-5-5-5-5-5-5-5-5-||-0-0-0-0-0-0-0-0-8-8-8-8-8-8-8-8-3-3-3-3-3-3-3-3-5-5-5-5-5-5-5-5-|
|---------------------------------------------------------------------------------||---------------------------------------------------------------------------------||---------------------------------10-10-10-10-10-10-10-10-------------------------||-0-0-0-0-0-0-0-0-8-8-8-8-8-8-8-8-10-10-10-10-10-10-10-10-10-10-10-10-10-10-10-10-||-0-0-0-0-0-0-0-0-8-8-8-8-8-8-8-8-8--8--8--8--8--8--8--8--10-10-10-10-10-10-10-10-||-0-0-0-0-0-0-0-0-8-8-8-8-8-8-8-8-------------------------10-10-10-10-10-10-10-10-|
|-----------------------------------------------------------------||-----------------------------------------------------------------||-----------------------------------------------------------------||-0-0-0-0-0-0-0-0-8-8-8-8-8-8-8-8-3-3-3-3-3-3-3-3-5-5-5-5-5-5-5-5-||-0-0-0-0-0-0-0-0-8-8-8-8-8-8-8-8-3-3-3-3-3-3-3-3-5-5-5-5-5-5-5-5-||-0-0-0-0-0-0-0-0-8-8-8-8-8-8-8-8-3-3-3-3-3-3-3-3-5-5-5-5-5-5-5-5-|
|---------------------------------------------------------------------------------||---------------------------------------------------------------------------------||---------------------------------10-10-10-10-10-10-10-10-------------------------||-0-0-0-0-0-0-0-0-8-8-8-8-8-8-8-8-10-10-10-10-10-10-10-10-10-10-10-10-10-10-10-10-||-0-0-0-0-0-0-0-0-8-8-8-8-8-8-8-8-8--8--8--8--8--8--8--8--10-10-10-10-10-10-10-10-||-0-0-0-0-0-0-0-0-8-8-8-8-8-8-8-8-------------------------10-10-10-10-10-10-10-10-|
|-----------------------------------------------------------------||-----------------------------------------------------------------||-----------------------------------------------------------------||-0-0-0-0-0-0-0-0-8-8-8-8-8-8-8-8-3-3-3-3-3-3-3-3-5-5-5-5-5-5-5-5-||-0-0-0-0-0-0-0-0-8-8-8-8-8-8-8-8-3-3-3-3-3-3-3-3-5-5-5-5-5-5-5-5-||-0-0-0-0-0-0-0-0-8-8-8-8-8-8-8-8-3-3-3-3-3-3-3-3-5-5-5-5-5-5-5-5-|
|---------------------------------------------------------------------------------||---------------------------------------------------------------------------------||---------------------------------10-10-10-10-10-10-10-10-------------------------||-0-0-0-0-0-0-0-0-8-8-8-8-8-8-8-8-10-10-10-10-10-10-10-10-10-10-10-10-10-10-10-10-||-0-0-0-0-0-0-0-0-8-8-8-8-8-8-8-8-8--8--8--8--8--8--8--8--10-10-10-10-10-10-10-10-||-0-0-0-0-0-0-0-0-8-8-8-8-8-8-8-8-------------------------10-10-10-10-10-10-10-10-|
|-----------------------------------------------------------------||-----------------------------------------------------------------||-----------------------------------------------------------------||-0-0-0-0-0-0-0-0-8-8-8-8-8-8-8-8-3-3-3-3-3-3-3-3-5-5-5-5-5-5-5-5-||-0-0-0-0-0-0-0-0-8-8-8-8-8-8-8-8-3-3-3-3-3-3-3-3-5-5-5-5-5-5-5-5-||-0-0-0-0-0-0-0-0-8-8-8-8-8-8-8-8-3-3-3-3-3-3-3-3-5-5-5-5-5-5-5-5-|
outro
|-----------------------------------------------------------------||-----------------------------------------------------------------||-----------------------------------------10-10-10-10-10-10-10-10-||-------------------------8-8-8-8-8-8-8-8-10-10-10-10-10-10-10-10-||-12-12-12-12-12-12-12-12-8-8-8-8-8-8-8-8-8--8--8--8--8--8--8--8--||-0--0--0--0--0--0--0--0--8-8-8-8-8-8-8-8-------------------------|
|--------------------------------------------------||--------------------------------------------------||--------------------------------------------------||-10-10-10-10-10-10-10-10--------------------------||-10-10-10-10-10-10-10-10-12-12-12-12-12-12-12-12--||-10-10-10-10-10-10-10-10-0--0--0--0--0--0--0--0---|
|-------------------------------------------||-------------------------------------------||-------------------------------------------||-8-8-8-8-8-8-8-8-3-3-3-3-3-3-3-3-5-5-5-5-5-||-8-8-8-8-8-8-8-8-3-3-3-3-3-3-3-3-5-5-5-5-5-||-8-8-8-8-8-8-8-8-3-3-3-3-3-3-3-3-5-5-5-5-5-|
Please rate this tab:
x1.0