Children Of Bodom - Not My Funeral tab

Title: Not My Funeral
Artist: Children Of Bodom
Album: Relentless, Reckless Forever (2011)
Words: ALexi Laiho
Music: ALexi Laiho
Tabber: Jordan Guthrie
Tempo = 210


Legend
x - dead note
h - hammer on/pull off
b - bend
s - slide
~ - vibrato
g - ghost note
> - accentuated note
t - trill
. - staccato
+ - tapping
W - wide vibrato
< - fade in
w - whammy bar
= - tremolo picking
v - brush up
^ - brush down
V - pick stroke up
n - pick stroke down

Tuning: 1 Step Down (DGCFAD)

Alexi's Part:
                                                             
D |----------------------------|----------------------------|A |----------------------------|----------------------------|F |----------------------------|----------------------------|C |----------------------------|----------------------------|G |--7-----7h-8--7-------------|-----6-----6-----6-----6----|D |-----0-----------0--0--0----|--0-----0-----0-----0-------|
----------------------------|----------------------------|----------------------------|----------------------------|----------------------------|----------------------------|----------------------------|-----------------7----------|--7-----7h-8--7-------------|--10-------7-----------6----|-----0-----------0--0--0----|-----6--0-----5-----8-------|
----------------------------|----------------------------|----------------------------|----------------------------|----------------------------|----------------------------|----------------------------|----------------------------|--7-----7h-8--7-------------|-----5-----5-----5-----5----|-----0-----------0--0--0----|--0-----0-----0-----0-------|
----------------------------|----------------------------|----------------------------|----------------------------|----------------------------|----------------------------|--2--------4--------5-------|--4--------5--------8-------|--0--------2--------3-------|--2--------3--------6-------|----------------------------|----------------------------|
----------------------------|----------------------------|----------------------------|----------------------------|----------------------------|----------------------------|----------------------------|----------------------------|--7-----7h-8--7-------------|-----6-----6-----6-----6----|-----0-----------0--0--0----|--0-----0-----0-----0-------|
----------------------------|----------------------------|----------------------------|----------------------------|----------------------------|----------------------------|----------------------------|-----------------7----------|--7-----7h-8--7-------------|--10-------7-----------6----|-----0-----------0--0--0----|-----6--0-----5-----8-------|
----------------------------|----------------------------|----------------------------|----------------------------|----------------------------|----------------------------|----------------------------|----------------------------|--7-----7h-8--7-------------|-----5-----5-----5-----5----|-----0-----------0--0--0----|--0-----0-----0-----0-------|
----------------------------|----------------------------|----------------------------|----------------------------|----------------------------|-----3-----------4--3--2----|--2-----2--3--2-------------|--------2--5----------------|-----4-----------4--4--4----|--3-----------2-------------|----------------------------|----------------------------|
----------------------------|----------------------------|----------------------------|----------------------------|----------------------------|----------------------------|----------------------------|----------------------------|--7-----7h-8--7-------------|-----6-----6-----6-----6----|-----0-----------0--0--0----|--0-----0-----0-----0-------|
----------------------------|----------------------------|----------------------------|----------------------------|----------------------------|----------------------------|----------------------------|-----------------7----------|--7-----7h-8--7-------------|--10-------7-----------6----|-----0-----------0--0--0----|-----6--0-----5-----8-------|
----------------------------|----------------------------|----------------------------|----------------------------|----------------------------|----------------------------|----------------------------|----------------------------|--7-----7h-8--7-------------|-----5-----5-----5-----5----|-----0-----------0--0--0----|--0-----0-----0-----0-------|
----------------------------|----------------------------|----------------------------|----------------------------|----------------------------|----------------------------|--2--------4--------5-------|--4--------5--------7-------|--0--------2--------3-------|--2--------3--------5-------|----------------------------|----------------------------|
----------------------------|----------------------------|----------------------------|----------------------------|----------------------------|----------------------------|----------------------------|----------------------------|--0--0--0--2--2--2--3--3----|--2--2--2--3--3--3--6--6----|----------------------------|----------------------------|
----------------------------|----------------------------|----------------------------|-----------------12s10------|----------------------------|--------------9--------7----|----------------------------|----------------------------|--2--2--2--2----------------|----------------------------|--0--0--0--0----------------|----------------------------|
----------------------------|----------------------------|----------------------------|----------------------------|----------------------------|--------------4-------------|----------------------------|--------------4-------------|--x--2--2--2--2-------------|--------------2-------------|--x--0--0--0--0-------------|----------------------------|
----------------------------|----------------------------|----------------------------|-----------------12s10------|----------------------------|--------------9--------7----|----------------------------|----------------------------|--2--2--2--2----------------|----------------------------|--0--0--0--0----------------|----------------------------|
----------------------------|----------------------------|----------------------------|-----------8-----------11---|--------9s-11-7-----7--11---|-----5--7-----8-----8-------|-----9-----------9----------|--5--------------8----------|--7-------------------------|----------------------------|----------------------------|----------------------------|
----------------------------------------------------|----------------------------------------------------|----------------------------------------------------|----------------------------------------------------|--------------8h-7--------10----------------10------|--0-----0-----------0-----0-----0-----0-------------|
----------------------------|----------------------------|----------------------------|----------------------------|----------------------------|----------------------------|-----------------9--7-------|----------------------------|--------5s-8--7--------5----|--------8-----10-------10---|--0--0----------------------|--0--0--0--0--0--0--0-------|
----------------------------|----------------------------|----------------------------|----------------------------|--------5s-10----9s-12------|--0--0--------7--------10---|
----------------------------------------------------|----------------------------------------------------|----------------------------------------------------|----------------------------------------------------|--------------8h-7--------10----------------10------|--0-----0-----------0-----0-----0-----0-------------|
----------------------------|----------------------------|----------------------------|----------------------------|----------------------------|----------------------------|-----------------9s-7-------|--2--2--2--4--4--4--4--4----|--------5s-8--7--------5----|--0--0--0--2--2--2--2--2----|--0--0----------------------|----------------------------|
----------------------------|----------------------------|----------------------------|--5--5--5--7--7--7--7--7----|--3--3--3--5--5--5--5--5----|----------------------------|
----------------------------------------------------|----------------------------------------------------|----------------------------------------------------|----------------------------------------------------|--------------8h-7--------10----------------10------|--0-----0-----------0-----0-----0-----0-------------|
----------------------------|----------------------------|----------------------------|-----------------9--7-------|--------5s-8--7--------5----|--0--0----------------------|
----------------------------------------------------|----------------------------------------------------|----------------------------------------------------|----------------------------------------------------|--------------8h-7--------10----------------10------|--0-----0-----------0-----0-----0-----0-------------|
----------------------------|----------------------------|----------------------------|----------------------------|----------------------------|----------------------------|----------------------------|----------------------------|--------5s-10----9s-12------|--------8-----10-------10---|--0--0--------7--------10---|--0--0--0--0--0--0--0-------|
----------------------------|----------------------------|----------------------------|----------------------------|----------------------------|----------------------------|-----------------9s-7-------|--2--2--2--4--4--4--4--4----|--------5s-8--7--------5----|--0--0--0--2--2--2--2--2----|--0--0----------------------|----------------------------|
----------------------------------------|----------------------------|----------------------------------------|----------------------------|----------------------------------------|----------------------------|--5--5--5--8--8--8--8--8--8--8--8--8----|----------------------------|--3--3--3--6--6--6--6--6--6--6--6--6----|--6--6-----6-----6-----6----|----------------------------------------|--6--6-----6-----6----------|
----------------------------|----------------------------|----------------------------|----------------------------|----------------------------|----------------------------|----------------------------|----------------------------|----------------------------|----------------------------|--0-----0--0-----0-----0----|--0--0--0-----0-----0--0----|
----------------------------|----------------------------|----------------------------|----------------------------|----------------------------|----------------------------|----------------------------|----------------------------|----------------------------|----------------------------|--0-----0--0-----0-----0----|--0--0--0-----0-----0--0----|
----------------------------|----------------------------|----------------------------|----------------------------|----------------------------|----------------------------|----------------------------|----------------------------|----------------------------|----------------------------|--0-----0--0-----0-----0----|--0--0--0-----0-----0--0----|
----------------------------|----------------------------|----------------------------|----------------------------|----------------------------|----------------------------|----------------------------|----------------------------|----------------------------|----------------------------|--0-----0--0-----0-----0----|--0--0--0-----0-----3--3----|
----------------------------|----------------------------|----------------------------|----------------------------|----------------------------|----------------------------|----------------------------|----------------------------|--4-----4--4-----4-----4----|--4--4--4-----4-----4--4----|--2-----2--2-----2-----2----|--2--2--2-----2-----2--2----|
----------------------------|----------------------------|----------------------------|----------------------------|----------------------------|----------------------------|----------------------------|----------------------------|--4-----4--4-----4-----4----|--4--4--4-----4-----4--4----|--2-----2--2-----2-----2----|--2--2--2-----2-----2--2----|
----------------------------|----------------------------|----------------------------|----------------------------|----------------------------|----------------------------|----------------------------|----------------------------|--4-----4--4-----4-----4----|--4--4--4-----4-----4--4----|--2-----2--2-----2-----2----|--2--2--2-----2-----2--2----|
----------------------------|----------------------------|----------------|----------------------------|----------------------------|----------------|----------------------------|----------------------------|--7--6-----9----|-----------6-----6-----6----|--------------9--9--9--9----|--7--7--9--9----|--4-----4--4-----4-----4----|--7--7--7-----7--7--7--7----|--5--5--7--7----|--2-----2-------------------|--5--5--5-------------------|----------------|
----------------|----------------|----------------------------|----------------|----------------|----------------------------|--9-----9-------|----------------|----------------------------|--9-----9-------|--4-------------|----------------------------|--7-----7-------|--4--4-----4----|--4-----------4--4-----4----|-----------0----|--2-----0--2----|--2-----0-----2--2--2-------|
----------------------------|----------------------------|----------------------------|----------------------------|--7-----6--6--------9-------|--9-----9--9--9--9----------|--7-----7--7--------9-------|--9-----9--9--9--9----------|--5-----5--5--5--5--7-------|--7-----7--7--7--7--9--9----|----------------------------|----------------------------|
----------------------------|----------------------------|----------------------------|----------------------------|--11-11-11-11-11-11-11-11---|--11-11-------9--9--9--9----|--11-11-11-11-11-11-11-11---|--11-11-11-11-9--9--9--9----|--9--9--9--9--9--9--9--9----|--9--9--------7--7--7--7----|----------------------------|----------------------------|
----------------------------|----------------------------|----------------|----------------------------|----------------------------|----------------|--------6--6----------------|--------9--9----------------|----------------|--------------9-------------|--------------9--9--5--5----|--4-------------|--5-----------------7-------|--7-------------------------|--4--4----------|----------------------------|----------------------------|--2--2--0--2----|
----------------------------|----------------------------|----------------------------|----------------------------|----------------------------|--------6--6----------------|--------------7--7--x--x----|--------------9-------------|--------------5--5--x--x----|--5-----------------7-------|--2~----x--x----------------|----------------------------|
----------------------------|----------------------------|----------------------------|----------------------------|--------9--9----------------|----------------------------|--------------9--9--5--5----|-----------11----------9----|--7-------------------------|--7s-9--9-----9s-7--7-------|----------------------------|----------------------------|
----------------------------|----------|----------|----------|----------------------------|----------|----------|----------|----------------------------|----------|----------|----------|-----------11----------9----|----------|----------|----------|--7s-9--9-----9s-7--7-------|----------|----------|----------|----------------------------|----------|----------|----------|
----------------------------|----------------------------|----------------------------|----------------------------|----------------------------|----------------------------|--------------11-------9----|----------------------------|-----------------9--12------|--------7-----6--------6----|----------------------------|--0--0--0--0--0--0--0--0----|
----------------------------|----------------------------|----------------------------|----------------------------|----------------------------|----------------------------|----------------------------|--------1-----2--------1----|--------3--3--2--2--1--1----|--------1-----2--------1----|--0--0--4--4--4--4--3--3----|--0--0-----0-----0--0-------|
----------------------------|----------------------------|----------------------------|----------------------------|----------------------------|----------------------------|--------------5--5--4--4----|----------------------------|--------3--3--3--3--2--2----|--------6-----7--------1----|--0--0--5--5----------------|--0--0--0--0--0--0--0--0----|
----------------------------|----------------------------|----------------------------|----------------------------|----------------------------|----------------------------|--------------2--2--1--1----|--9-----9--8-----8--7-------|--------3--3--3--3--3--3----|-----7--------6--------5----|--0--0--0--0----------------|----------------------------|
----------------------------|----------------------------|----------------------------|--7--6-----6--5-----4--3----|--------4--------3----------|----------------------------|
----------------------------------------------------|----------------------------------------------------|----------------------------------------------------|----------------------------------------------------|--------------3h-2--------5-----------------3-------|--0-----0-----0-----0-----------0-----0-----0-------|
----------------------------|----------------------------|----------------------------|----------------------------|----------------------------|----------------------------|-----------------9s-7-------|----------------------------|--------5--8--7--------5----|--------8-----10-------10---|--0--0----------------------|--0--0--0--0--0--0--0-------|
----------------------------|----------------------------|----------------------------|-----------7-----4s-7-------|--------5-----2--------5----|--0--0----------------------|
----------------------------------------------------|----------------------------------------------------|----------------------------------------------------|----------------------------------------------------|--------------3h-2--------5-----------------3-------|--0-----0-----0-----0-----------0-----0-----0-------|
----------------------------|----------------------------|----------------------------|----------------------------|----------------------------|----------------------------|-----------------9s-7-------|--2--2--2--4--4--4--4--4----|--------5--8--7--------5----|--0--0--0--2--2--2--2--2----|--0--0----------------------|----------------------------|
----------------------------|----------------------------|----------------------------|--5--5--5--7--7--7--7--7----|--3--3--3--5--5--5--5--5----|----------------------------|
----------------------------------------------------|----------------------------------------------------|----------------------------------------------------|----------------------------------------------------|--------------8h-7--------10----------------10------|--0-----0-----------0-----0-----0-----0-------------|
----------------------------|----------------------------|----------------------------|-----------------9s-7-------|--------5--8--7--------5----|--0--0----------------------|
----------------------------------------------------|----------------------------------------------------|----------------------------------------------------|----------------------------------------------------|--------------8h-7--------10----------------10------|--0-----0-----------0-----0-----0-----0-------------|
----------------------------|----------------------------|----------------------------|----------------------------|--------5s-10----9s-12------|--0--0--------7--------10---|
----------------------------------------------------|----------------------------------------------------|----------------------------------------------------|----------------------------------------------------|--------------8h-7--------10----------------10------|--0-----0-----------0-----0-----0-----0-------------|
----------------------------|----------------------------|----------------------------|----------------------------|----------------------------|----------------------------|-----------------9s-7-------|--2--2--2--4--4--4--4--4----|--------5--8--7--------5----|--0--0--0--2--2--2--2--2----|--0--0----------------------|----------------------------|
----------------------------|----------------------------|----------------------------|----------------------------|----------------------------|----------------------------|--5--5--5--8--8--8--8--8----|--8--8--8--8--8--8--8--8----|--3--3--3--6--6--6--6--6----|--6--6--6--6--6--6--6--6----|----------------------------|----------------------------|
----------------------------|----------------------------|----------------------------|----------------------------|----------------------------|----------------------------|----------------------------|----------------------------|--7-----7h-8--7-------------|-----6-----6-----6-----6----|-----0-----------0--0--0----|--0-----0-----0-----0-------|
----------------------------|----------------------------|----------------------------|----------------------------|----------------------------|----------------------------|----------------------------|-----------------7----------|--7-----7h-8--7-------------|--10-------7-----------6----|-----0-----------0--0--0----|-----6--0-----5-----8-------|
----------------------------|----------------------------|----------------------------|----------------------------|----------------------------|----------------------------|----------------------------|----------------------------|--7-----7h-8--7-------------|-----5-----5-----5-----5----|-----0-----------0--0--0----|--0-----0-----0-----0-------|
----------------------------|----------------------------|----------------------------|----------------------------|----------------------------|-----3-----------4--3--2----|--2-----2--3--2-------------|--------2--5----------------|-----4-----------4--4--4----|--3-----------2-------------|----------------------------|----------------------------|
----------------------------|----------------------------|----------------------------|----------------------------|----------------------------|----------------------------|----------------------------|----------------------------|--7-----7h-8--7-------------|-----6-----6-----6-----6----|-----0-----------0--0--0----|--0-----0-----0-----0-------|
----------------------------|----------------------------|----------------------------|----------------------------|----------------------------|----------------------------|----------------------------|-----------------7----------|--7-----7h-8--7-------------|--10-------7-----------6----|-----0-----------0--0--0----|-----6--0-----5-----8-------|
----------------------------|----------------------------|----------------------------|----------------------------|----------------------------|----------------------------|----------------------------|----------------------------|--7-----7h-8--7-------------|-----5-----5-----5-----5----|-----0-----------0--0--0----|--0-----0-----0-----0-------|
----------------------------|----------------------------|----------------------------|----------------------------|--2-------------------------|----------------------------|--2--------4--------5-------|--4--------5--------7-------|--0--------2--------3-------|--2--------3--------5-------|----------------------------|----------------------------|
----------------------------|----------------------------|----------------------------|----------------------------|----------------------------|----------------------------|----------------------------|----------------------------|--0--0--0--2--2--2--3--3----|--2--2--2--3--3--3--5--5----|----------------------------|----------------------------|
----------------------------|----------------------------|----------------------------|--------------------5s-7----|----------------------------|----------------------------|-----------5h-4h-5----------|--5h-4h-5-----7-------------|--3--3--3-----------3--3----|-----------3-----5----------|----------------------------|----------------------------|
----------------------------|----------------------------|----------------------------|--3h-2h-3-----2-------------|----------------------------|-----------2-----------6----|-----------5h-4h-5----------|-----------------4s-7-------|--3--3--3-----------2--2----|----------------------------|----------------------------|----------------------------|
----------------------------|----------------------------|----------------------------|----------------------------|-----------7h-6h-7----------|--7h-6h-7-----9-----11s12---|--5--5--5-----------5--5----|-----------5-----7----------|----------------------------|----------------------------|----------------------------|----------------------------|
----------------------------|----------------------------|----------------------------|----------------------------|-----------11h9h-11---------|--------7-----6-------------|--9--9--9-----------9--9----|--9--9--------------7-------|----------------------------|----------------------------|----------------------------|----------------------------|
----------------------------|--------------------12-14---|----------------------------|----------------------------|-----------12h11h12---------|--12h11h12----14------------|--10-10-10----------10-10---|-----------10----12---------|----------------------------|----------------------------|----------------------------|----------------------------|SOLO:
|----------------------------|----------------------------||----------------------------|--15h14h15----14----10-14---||-----------12-11-12---------|-----------11----11---------||--10-10-10----------9--9----|----------------------------||----------------------------|----------------------------||----------------------------|----------------------------|
----------------------------|--------------------14-15---|-----------15-14-15---------|--15-14-15----17------------|--12-12-12----------12-12---|-----------12----14---------|----------------------------|----------------------------|----------------------------|----------------------------|----------------------------|----------------------------|
-----------14-12-14---------|----------------------------|--12-12-12----------12-12---|--12-12~------10~------8----|----------------------------|----------------------------|----------------------------|----------------------------|----------------------------|----------------------------|----------------------------|----------------------------|
----------------------------------------|--8~-------7~-------8--7--8--10-8--7----|----------------------------------------|----------------------------------------|----------------------------------------|----------------------------------------|
w w w ----------------------------------------|-----18---|--17-17-17-17-17-17-21------------------|--20------|----------------------------------------|----------|----------------------------------------|----------|----------------------------------------|----------|----------------------------------------|----------|
--19h15---------------------------------|--------17------------------------------|-----------16~---------------18-19-21---|--------------------17-19-21------------|----------------------------------------|----------------------------------------|
--------------------19-------22-------24b-----------------------------------|--19----20----22------------------------------------------------------------|----------------------------------------------------------------------------|----------------------------------------------------------------------------|----------------------------------------------------------------------------|----------------------------------------------------------------------------|
--24-22-19-0--------19-17-15------------|-----------------------------19-17-15---|----------------------------------------|----------------------------------------|----------------------------------------|----------------------------------------|
--------15-18-17-15-17-19-17-15---------|-----17-------------------------17------|--18-------------------------------18---|----------------------------------------|----------------------------------------|----------------------------------------|
----------------------------------------------------------------------------|--------------------------------------------------------17----17----17------|--13~-----------------------------------------------------------------------|-----------------------------16-------14----14----14------------------------|----------------------------------------------------------------------------|----------------------------------------------------------------------------|
w -----------16-16-16-13------------------|----------------|----------------|--12-12-12-12-12-12-12------------------|--12-12---------|--12-12---------|----------------------------------------|----------------|----------------|----------------------------------------|----------------|----------------|----------------------------------------|----------------|----------------|----------------------------------------|----------------|----------------|
w ----------------|----------------|----------------|----------------|--12-12---------|--12-12---------|--12-12---------|--12-12---------|----------------|----------------|----------------|----------------|----------------|----------------|----------------|----------------|----------------|----------------|----------------|----------------|----------------|----------------|----------------|----------------|
w ----------------|----------------------------|----------------------------|--12-12---------|--12----------12----x--15---|--15b---------15b---12-16---|----------------|----------------------------|----------------------------|----------------|----------------------------|----------------------------|----------------|----------------------------|----------------------------|----------------|----------------------------|----------------------------|
w --------------------12-14---|--16----------16-12---------|----------------------------|----------------------------|----------------------------|----------------------------|
--15----14h15h14-12---------------------------------|--------------------15----13----12----11s12-12------|----------------------------------------------------|----------------------------------------------------|----------------------------------------------------|----------------------------------------------------|
W W ----------------------------|----------------------------|--15-12-13-12---------------|--------15------------------|--------------15-14-13-12---|--12b---------12-14-16-11---|----------------------------|-----14----14---------------|----------------------------|----------------------------|----------------------------|----------------------------|
W ----------------------------|--------12------------------|--11----------11-12-14-14s--|-----12----12---------------|----------------------------|----------------------------|
--------------------------------10-12-14-10-12-14s--|--------------10-12-13-10-12-13---------------------|--12-9--11-12---------------------------------------|----------------------------------------------------|----------------------------------------------------|----------------------------------------------------|
--15-12-14-15s17-14-15-17-17b---17----------15------|----------------------------------------------------|----------------------------------------------------|----------------------------------------------------|----------------------------------------------------|----------------------------------------------------|
w --15----------15----15h14h12------------------------|-----------------------------15h13h12---------------|--------------------------------------14h12-11------|----------------------------------------------------|----------------------------------------------------|----------------------------------------------------|
-----------17----17-17b18b--|--17b---15------------------|-----16-------16------------|-----------17-17b18b17b-----|--11----14------------------|----------------------------|----------------------------|----------------------------|----------------------------|----------------------------|----------------------------|----------------------------|
----------------------------|--15----17------------------|-----16----16s14-12---------|--------------------14-12---|----------------------------|----------------------------|
--------------12h15h12----------12h15h20h15h12------|-----------13----------13----13----------------13---|--------12----------------12------------------------|-----14---------------------------------------------|--15------------------------------------------------|----------------------------------------------------|
--19h14h11----------------------11h14h19h14h11------|-----------12----------------12---------------------|--------------11----------11------------------------|-----------------13----13---------------------------|--------------------14------------------------------|----------------------------------------------------|
--15----15-17-17b20b17b-----|-----17---------------------|----------------------------|----------------------------|----------------------------|----------------------------|
----------------------------------------------------|--17s---------17----------15------------------------|--------14s16-16g---16----------14----14b---12------|----------------------------------------------------|----------------------------------------------------|----------------------------------------------------|
--------------------15------|--------------16-------16---|--12~---15-------15---------|-----13----13---------------|----------------------------|----------------------------|
w --18----18----18-17-15------------------------------|-------|----------------|-----------------------18-16-15---------------------|-------|----------------|--------------------------------17-15-13------------|-------|----------------|-----------------------------------------17-15-13---|--14---|----------------|----------------------------------------------------|-------|----------------|----------------------------------------------------|-------|----------------|
----------------|----------------|----------------|--5----|-------|-------|----------------|----------------|----------------|-------|--5----|-------|----------------|----------------|----------------|-------|-------|--5----|----------------|----------------|----------------|-------|-------|-------|----------------|----------------|----------------|-------|-------|-------|----------------|----------------|----------------|-------|-------|-------|
w -------|-------|--12---|--12----------------15s14---|-------|--7----|--7----|-------|----------------------------|--11---|-------|-------|-------|----------------------------|-------|-------|-------|-------|----------------------------|-------|-------|-------|-------|----------------------------|-------|-------|-------|-------|----------------------------|-------|
w----------------------------|----------------|----------|----------------------|--11~-----------------------|----------------|----------|----------------------|--------------------12s15s--|--12-11----11---|--11------|----------------------|----------------------------|----------------|----------|----------------------|----------------------------|----------------|----------|----------------------|----------------------------|----------------|----------|----------------------|
--------------14-14---------|----------------|----------------------------|--------------------14-14---|--12-14-14b14---|--14s---10s---12-10-12------|----------------------------|----------------|----------------------------|--------11-11---------------|----------------|----------------------------|----------------------------|----------------|----------------------------|----------------------------|----------------|----------------------------|
----------------------------|--------------14-14---------|----------------|--12-12b--------------------|--------------------14-14---|--12-14-14b14---|--------------14----11------|--11~-----------------------|----------------|--------11------------------|--------11-11---------------|----------------|----------------------------|----------------------------|----------------|----------------------------|----------------------------|----------------|
--------------------14-16---|--17------------------------|--14----------14~14---------|--------14-19-17-14---------|----------------------------|-----14---------------------|----------------------------|--------------------14-12---|----------------------------|----------------------------|----------------------------|----------------------------|
--------------14-14---------|----------------|----------------------------|--------------------14-14---|--12-14-14b14---|--14s---10s---12-10-12------|----------------------------|----------------|----------------------------|--12-12-11-11---------------|----------------|----------------------------|----------------------------|----------------|----------------------------|----------------------------|----------------|----------------------------|
----------------------------|--------------14-14---------|----------------|--12-12b--------------------|--------------------14-14---|--12-14-14-14b--|--------------14----11------|--11~-----------------------|----------------|--------11------------------|--------11-11---------------|----------------|----------------------------|----------------------------|----------------|----------------------------|----------------------------|----------------|
----------------------------|----------------------------|-----------14----------12---|-----------10----------9----|--9--11-11----11-9--9-------|--9--11-11----11-9--9-------|----------------------------|----------------------------|----------------------------|----------------------------|----------------------------|----------------------------|
--------------14-14---------|----------------|----------------------------|--------------------14-14---|--12-14-14-14---|--14s---10s---12-10-12------|----------------------------|----------------|----------------------------|--12----11-11---------------|----------------|----------------------------|----------------------------|----------------|----------------------------|----------------------------|----------------|----------------------------|
----------------------------|--------------14-14---------|----------------|--12-12b--------------------|--------------------14-14---|--12-14-14-14---|--------------14----11------|--11~-----------------------|----------------|--------11------------------|--------11-11---------------|----------------|----------------------------|----------------------------|----------------|----------------------------|----------------------------|----------------|
--------------------14-16---|--17------------------------|--14s---14s---14------------|--------14-19-17-14---------|----------------------------|-----14---------------------|----------------------------|--------------------16-14---|----------------------------|----------------------------|----------------------------|----------------------------|
--------------14-14---------|----------------|----------------------------|--------------------14-14---|--12-14-14-14---|--14s---10s---12-10-12------|----------------------------|----------------|----------------------------|--12-12-11-11---------------|----------------|----------------------------|----------------------------|----------------|----------------------------|----------------------------|----------------|----------------------------|
----------------------------|--------------14-14---------|----------------|--12-12b--------------------|--------------------14-14---|--12-14-14-14b--|--------------14----11------|--11~-----------------------|----------------|--------11------------------|--------11-11---------------|----------------|----------------------------|----------------------------|----------------|----------------------------|----------------------------|----------------|
----------------------------|----------------------------||-----------14----------12---|-----------10----------9----||--9--11-11----11-9--9-------|--9--11-11----11-9--9-------||----------------------------|----------------------------||----------------------------|----------------------------||----------------------------|----------------------------||
Rhythm for solo:
----------------------------|----------------------------|----------------------------|----------------------------|-----------12h11h12---------|----------------------------|--10-10-10------------------|--------------4-------------|--------------------2--2----|--5--4--5--5-----------4----|----------------------------|-----------------2--5-------|
----------------------------|----------------------------|----------------------------|----------------------------|----------------------------|--------------6-----7--9----|--5--5--5--9--7--9--5--5----|--9--7--9--5-----7----------|----------------------------|----------------------------|----------------------------|----------------------------|
----------------------------|----------------------------|----------------------------|----------------------------|----------------------------|----------------------------|--9--9--9--12-11-12-9--9----|--9--9~-------7~-------5----|----------------------------|----------------------------|----------------------------|----------------------------|
----------------------------------------|----------------------------------------|----------------------------------------|--5~-------4~-------5--4--5--7--5--4----|----------------------------------------|----------------------------------------|
----------------------------------------|-------|----------------------------------------|-------|----------------------------------------|-------|----------------------------------------|-------|----------------------------------------|-------|--0--0--0--0----------------------------|-------|
----------------------------------------|----------------------------------------|----------------------------------------|----------------------------------------|----------------------------------------|--0--0--0--0-----------------3--5--7----|
W ----------------------------------------------------------------------------|----------------------------------------------------------------------------|----------------------------------------------------------------------------|----------------------------------------------------------------------------|--------------------------------------3-------------------------------------|--0-----0-----0-----0--------0----------------------------------------------|
----------------------------------------|-------|----------------------------------------|-------|----------------------------------------|-------|----------------------------------------|-------|----------------------------------------|-------|--0--0--0--0----------------------------|-------|
----------------------------------------|----------------------------------------|----------------------------------------|----------------------------------------|----------------------------------------|--0--0--0--0-----------------5--7--9----|
----------------------------------------|----------------------------------------|--------------------7-------------------|----------------------------------------|--------------------5-------------------|--0-----0--0----------------------------|
----------------------------------------|-------|----------------------------------------|-------|----------------------------------------|-------|----------------------------------------|-------|----------------------------------------|-------|--0--0--0--0----------------------------|-------|
----------------------------------------|----------------------------------------|----------------------------------------|----------------------------------------|----------------------------------------|--0--0--0--0-----------------3--5--7----|
W----------------------------------------|----------------------------------------|----------------------------------------|----------------------------------------|--------------------3-------------------|--0--0--0--0----------------------------|
----------------------------------------|-------|----------------------------|----------------------------------------|-------|----------------------------|----------------------------------------|-------|----------------------------|----------------------------------------|-------|--7-------------------------|----------------------------------------|-------|--5-----5--5--5--5--5--5----|--0--0--0--0----------------------------|-------|----------------------------|
----------------------------|----------------------------|-------|-------|----------------------------|----------------------------|-------|-------|----------------------------|----------------------------|-------|-------|-----------------------5----|--5-----------5--------4----|--4----|--2----|--5--5--5--5--5--5--7--3----|--3-----------3--------2----|--2----|--2----|----------------------------|----------------------------|-------|--0----|
----------------------------|-------|-------|----------------------------|----------------------------|-------|-------|----------------------------|----------------------------|-------|-------|----------------------------|-----------------------5----|--5----|--4----|----------------------------|--4-----------5-----5--3----|--3----|--2----|--7-----7--9--10------------|--2-----------3-----3-------|-------|-------|-----0-----------0--0--0----|
----------------------------------------------------|----------------------------------------------------|----------------------------------------------------|--------------------------------------------5-------|--7-----------7-----9-----10----9-----------3-------|--------0--0----------------------------------------|
----------------------------|-------|-------|----------|-------|-------|----------------------------|-------|-------|----------|-------|-------|----------------------------|-------|-------|----------|--5----|--4----|--5-----------5--------4----|--4----|--2----|----------|--5----|--4----|--3-----------3--------2----|--2----|--2----|--4--5----|--3----|--2----|----------------------------|-------|--0----|--2--3----|-------|-------|
----------------------------|----------------------------|----------------------------|----------------------------|----------------------------|----------------------------|----------------------------|-----------------------8----|--7-----7--9--10------------|--7-----7--9--10-5-----6----|-----0-----------0--0--0----|-----10---------------------|
----------------------------|----------------------------|----------------------------|----------------------------|----------------------------|----------------------------|--8-------------------------|----------------------------|--6--6--6--6--6--6--6--6----|--6--6-----6-----6-----6----|----------------------------|--6--6-----6-----6-----6----|
----------------------------|----------------------------|----------------------------|----------------------------|----------------------------|----------------------------|----------------------------|----------------------------|----------------------------|----------------------------|--0-----0--0-----0-----0----|--0--0--0-----0-----0--0----|
----------------------------|----------------------------|----------------------------|----------------------------|----------------------------|----------------------------|----------------------------|----------------------------|----------------------------|----------------------------|--0-----0--0-----0-----0----|--0--0--0-----0-----0--0----|
----------------------------|----------------------------|----------------------------|----------------------------|----------------------------|----------------------------|----------------------------|----------------------------|----------------------------|----------------------------|--0-----0--0-----0-----0----|--0--0--0-----0-----0--0----|
----------------------------|----------------------------|----------------------------|----------------------------|----------------------------|----------------------------|----------------------------|----------------------------|----------------------------|----------------------------|--0-----0--0-----0-----0----|--0--0--0-----0-----3--2----|
----------------------------|----------------------------|----------------------------|----------------------------|----------------------------|----------------------------|----------------------------|----------------------------|--4-----4--4-----4-----4----|--4--4--4-----4-----4--4----|--2-----2--2-----2-----2----|--2--2--2-----2-----2--2----|
----------------------------|----------------------------|----------------------------|----------------------------|----------------------------|----------------------------|----------------------------|----------------------------|--4-----4--4-----4-----4----|--4--4--4-----4-----5--4----|--2-----2--2-----2-----2----|--2--2--2-----2-----3--2----|
----------------------------|----------------------------|----------------------------|----------------------------|----------------------------|----------------------------|----------------------------|----------------------------|--4-----4--4-----4-----4----|--4--4--4-----4-----4--4----|--2-----2--2-----2-----2----|--2--2--2-----2-----2--2----|
----------------------------|----------------------------|----------------------------|----------------------------|----------------------------|----------------------------|-----------6-----6-----6----|--------------9--9--9--9----|--4-----4--4-----4-----4----|--7--7--7-----7--7--7--7----|--2-----2-------------------|--5--5--5-------------------|
----------------------------------------|----------------------------|----------------------------------------|----------------------------|----------------------------------------|--7-----6--6--------9-------|--------9--9--9--9----------------------|--7-----7--7--9--9--9-------|--------7--7--7--7--7--7--19s-----------|--5-----5--5--------7-------|--------------------------19s-----------|----------------------------|
----------------------------|----------------|-------|----------------------------|----------------|-------|--9-----9-----9-------------|----------------|-------|--9-----9-----9-------------|--11-6----------|-------|--7-----7-----7-----7--7----|--9--4-----4----|--4----|----------------------------|--------0--2----|--2----|
----------------------------|----------------------------|----------------------------|----------------------------|--7-----6--6--------9-------|--9-----9-----9-------------|--7-----7--7--9--9--9-------|--9-----9-----9-------------|--5-----5--5--------7-------|--7-----7-----7-----7--7----|----------------------------|----------------------------|
----------------------------|----------------------------|----------------------------|----------------------------|--11-11-11-11-11-11-11-11---|--11-11-11-11---------------|--11-11-11-11-11-11-11-11---|--11-11-11-11-9--9--9--9----|--9--9--9--9--9--9--9--9----|--9--9--9--9--7--7--7--7----|----------------------------|----------------------------|
----------------------------|----------------|----------------|----------------------------|----------------|----------------|--7-----6--6--------9-------|--9--9--9-------|----------------|--7-----7--7--9--9--9-------|--9--9--9-------|--4-------------|--5-----5--5--------7-------|--7--7--7-------|--4--4-----4----|----------------------------|-----------0----|--2--2--0--2----|
----------------------------|----------------------------|----------------------------|----------------------------|----------------------------|--7-----6--6--------9-------|----------------------------|--7-----7--7--9--9--9-------|--4-------------------------|--5-----5--5--------7-------|--2-----0-----2--2-----2----|----------------------------|
----------------------------|----------------------------|----------------------------|----------------------------|--9-----9-------------------|----------------------------|--9-----9-------------------|-----------11----------9----|--7-----7--7--7--7--7--7----|--7--9--9-----9--7--7-------|----------------------------|----------------------------|
----------------------------|----------------------------|----------------------------|----------------------------|----------------------------|--7-----6--6--------9-------|-----------11----------9----|--7-----7--7--7s-9--9-------|--7--9--9-----9--7--7-------|--5-----5--5--------7-------|----------------------------|----------------------------|
----------------------------|----------------------------|----------------------------|----------------------------|--9-----9--9----------------|----------------------------|--9-----------9--9--5--5----|----------------------------|--7-------------------------|--9s----4-------------------|----------------------------|--------------0-----0s-2----|
----------------------------|----------------------------|----------------------------|----------------------------|----------------------------|----------------------------|----------------------------|--------7--7--9-------------|----------------------------|--5-----------------7-------|--2--0--0--2--2--0--0--2----|----------------------------|
----------------------------|----------------------------|----------------------------|----------------------------|--------9--9----------------|----------------------------|--------------9--9--5--5----|--9s-11-11-11-11-11-11-11---|--7~------------------------|--7s-9--9--9--9--9--9--9----|----------------------------|----------------------------|
----------------------------|----------------------------|----------------------------|----------------------------|----------------------------|--7-----6--6----------------|--11-11-11-11-9--9--9--9----|--------------7s-9----------|--9--9--9--9--7--7--7--7----|--------------------7-------|----------------------------|----------------------------|
----------------------------|----------------------------|----------------------------|----------------------------|--------9--9----------------|----------------------------|--------------9--9--5--5----|--4--4----------------------|--7~------------------------|--------4--4----------------|----------------------------|--------------0--0--2-------|
----------------------------|----------------------------|----------------------------|----------------------------|----------------------------|----------------------------|--------------7--7--7--7----|--------7--7--9-------------|--------------5--5--4--4----|--5~----------------7-------|--2~------------------------|----------------------------|
----------------------------|----------------------------|----------------------------|----------------------------|--------9--9----------------|----------------------------|--------------9--9--5--5----|-----------11----------9----|--7~------------------------|--7--9--9-----9--7--7-------|----------------------------|----------------------------|
----------------------------|----------------------------|----------------------------|----------------------------|----------------------------|--11~---------------11-13---|-----------11----------9----|----------------------------|--7--9--9-----9--7--7-------|----------------------------|----------------------------|----------------------------|
----------------------------------------------------------------------------|----------------------------------------------------------------------------|--14----13----11----14----------------13~-----------------------------------|----------------------------------------------------------------------------|----------------------------------------------------------------------------|----------------------------------------------------------------------------|
----------------------------------------|----------------------------------------|----------
Tap to rate this tab
 
# A B C D E F G H I J K L M N O P Q R S T U V W X Y Z