Children Of Bodom - Living Dead Beat tab

keyboard/guitar solo

-12-7-0-10-12-0-0-10-12-0-19-0-17-14--14-|------------------------------------15---|-----------------------------------------|-----------------------------------------|-----------------------------------------|-----------------------------------------|
-12-7-0-10-12-0-0-10-12-0-19-0-17-14--14-|------------------------------------15---|-----------------------------------------|-----------------------------------------|-----------------------------------------|-----------------------------------------|
--------------------14-17--17-14------14-|-17-15--17-15--17-15-----15-----17-15----|------14-----14--------------------------|-----------------------------------------|-----------------------------------------|-----------------------------------------|
-12-7-0-10-12-0-0-14-17-14--0-14-11-0-|--------------------------15------13--|--------------------------------------|--------------------------------------|--------------------------------------|--------------------------------------|
-12-7-0-10-12-0-0-10-12-0-19-0-17-14--14-|------------------------------------15---|-----------------------------------------|-----------------------------------------|-----------------------------------------|-----------------------------------------|
-12-7-0-10-12-0-0-10-12-0-19-0-17-14--14-|------------------------------------15---|-----------------------------------------|-----------------------------------------|-----------------------------------------|-----------------------------------------|
--------------------14-17--17-14------14-|-17-15--17-15--17-15-----15-----17-15----|------14-----14--------------------------|-----------------------------------------|-----------------------------------------|-----------------------------------------|
-12-7-0-10-12-0-0-14-17-14--0-14-11--0-11-8--0-8-5--0-|--------------------------15-------13------10-----7---|------------------------------------------------------|------------------------------------------------------|------------------------------------------------------|------------------------------------------------------|
-11-8------8-14-11------11-17-14------14-20-17------17-20-|-----10--10-------13--13--------16--16--------19--19------|-------11-----------14------------17------------20--------|----------------------------------------------------------|----------------------------------------------------------|----------------------------------------------------------|
Tap to rate this tab
 
# A B C D E F G H I J K L M N O P Q R S T U V W X Y Z