Chimaira - Nothing Remains tab

ARTIST:Chimaira
SONG:Nothing Remains
ALBUM:Chimaira
TABBED BY:Lewis (me) and Ryan
POSTED BY:nUmguitarist
TUNING: C G C F A D (VERY IMPORTANT)

I saw this tab and was amazed so here it is
Oh yeah this tab is correct compared to the other tab 
on here.So enjoy it i did.Great work by the original tabbers
Please RATE THIS TAB and comment

|---------------||---------------| intro - guitar 2 opens|---------------| |4-----4-----4--| repeat several times|4-----4-----4--| |--5-5---5-5----| . . . . then both guitars play this..
|---------------||---------------| |---------------| |4-----4-----4--||4-----4-----4--| |--5-5---5-5----| . . . .
this is repeated 4 times and then this is played..
|------------------------| |-------------||------------------------| this is repeated |-------------||------------------------| 4 times but on |-------------||---------4-----4-----4--| fourth time end |---------4---||---------4-----4-----4--| on this -> |---------4---||55555555---5-5---5-5----| |55555555-----| ........ . . . . ........then both guitars play this..
|-----------------------------------------------------------------------||-----------------------------------------------------------------------||-----------------------------------------------------------------------||1-2-------------1-----1-----1/5-4-----------------1-----1-----1/6-5----||1-2-------------1-----1-----1/5-4-----------------1-----1-----1/6-5----||----2-2-2-2-2-2---2-2---2-2---------2-2-2-2-2-2-2---2-2---2-2----------|
. . . . . . . . . . . . . . . . . . . . .|-----------------------------------------------------------------------||-----------------------------------------------------------------------||-----------------------------------------------------------------------||1-2-------------1-----1-----1/5-4-----------------1-----1-----5--------||1-2-------------1-----1-----1/5-4-----------------1-----1-----5--------||----2-2-2-2-2-2---2-2---2-2---------2-2-2-2-2-2-2---2-2---2-2----------| . . . . . . . . . . . . . . . . . . . . .then this..
|-------------------------------------------------------------------||-------------------------------------------------------------------||-------------------------6------7------------8---------------------||0-----9-----8------4-----6------7------7-----8--------/------------||0-----9-----8------4-----4------5------7-----6--------/------------||0-----9-----8------4-------------------7----------9b--/------------|
this is repeated twice and then this is played..
|---------------||---------------| |---------------| |4-----4-----4--||4-----4-----4--| |--5-5---5-5----| . . . .
this is repeated twice and then this..|------------------------| |-------------||------------------------| this is repeated |-------------||------------------------| 4 times but on |-------------||---------4-----4-----4--| fourth time end |---------4---||---------4-----4-----4--| on this -> |---------4---||55555555---5-5---5-5----| |55555555-----| ........ . . . . ........then both guitars play this..
|-----------------------------------------------------------------------||-----------------------------------------------------------------------||-----------------------------------------------------------------------||1-2-------------1-----1-----1/5-4-----------------1-----1-----1/6-5----||1-2-------------1-----1-----1/5-4-----------------1-----1-----1/6-5----||----2-2-2-2-2-2---2-2---2-2---------2-2-2-2-2-2-2---2-2---2-2----------|
. . . . . . . . . . . . . . . . . . . . .|-----------------------------------------------------------------------||-----------------------------------------------------------------------||-----------------------------------------------------------------------||1-2-------------1-----1-----1/5-4-----------------1-----1-----5--------||1-2-------------1-----1-----1/5-4-----------------1-----1-----5--------||----2-2-2-2-2-2---2-2---2-2---------2-2-2-2-2-2-2---2-2---2-2----------| . . . . . . . . . . . . . . . . . . . . .then this..
|-------------------------------------------------------------------||-------------------------------------------------------------------||-------------------------6------7------------8---------------------||0-----9-----8------4-----6------7------7-----8--------/------------||0-----9-----8------4-----4------5------7-----6--------/------------||0-----9-----8------4-------------------7----------9b--/------------|
this is repeated twice and then this is played..|---------------||---------------| |---------------| |4-----4-----4--||4-----4-----4--| |--5-5---5-5----| . . . .this is repeated twice and then this..
|------------------------| |-------------||------------------------| this is repeated |-------------||------------------------| 4 times but on |-------------||---------4-----4-----4--| fourth time end |---------4---||---------4-----4-----4--| on this -> |---------4---||55555555---5-5---5-5----| |55555555-----| ........ . . . . ........then both guitars play this..
|--------------------------------||--------------------------------||--------------------------------||-4---4---3---3---6---6---5---5--||-4---4---3---3---6---6---5---5--||---0---0---0---0---0---0---0----| . . . . . . .this is repeated 4 timesthen guitar 2 plays this..
|--------------------------------------------------------------|---||--------------------------------------------------------------|---||0--------------7--------------3--------------8----------------|-0-||0--------------7--------------3--------------8----------------|-0-||0--------------7--------------3--------------8----------------|-0-| .but guitar one plays this over the top..
|--------------------------------------------------------------||--------------------------------------------------------------||--------------------------------------------------------------||7-3-2-0-2/3----7-3-2-0-2/3----7-3-2-0-2/3----7-3-2-0-2/3------||--------------------------------------------------------------||--------------------------------------------------------------|
thenguitar 1 plays this..
|-------------------------------------------------------------------||-------------------------------------------------------------------||-------------------------------------------------------------------||--7/8/7b-/8/-11b-8-8/7--8/7b-7/8/--7b--8/787-5-3-2-2/3--0----------||-------------------------------------------------------------------||-------------------------------------------------------------------|
this is repeated 4 times and then this is played..
|-------------------------------------------------------------------||-------------------------------------------------------------------| use tremelo |-------------------------------------------------------------------| arm to bring |--7/8/7b-/8/-11-11-/12/-14b-12-11/8-8-8/7--------------------------| the note down|-------------------------------------------------------------------||-------------------------------------------------------------------|
and guitar 2 plays this underneath..
|-----------------------------------------------------||-----------------------------------------------------||-----------------------------------------------------||0------------4-------------10------------13-13-------||0------------4-------------10------------13-13-------||0------------4-------------10------------13-13-------|
. .|-----------------------------------------------------||-----------------------------------------------------||-----------------------------------------------------||0---------5--4-------------10------------13-13-------||0---------5--4-------------10------------13-13-------||0---------5--4-------------10------------13-13-------|
. . .|-----------------------------------------------------||-----------------------------------------------------||-----------------------------------------------------||0------------4-------------10------------13-13-------||0------------4-------------10------------13-13-------||0------------4-------------10------------13-13-------|
. .|-----------------------------------------------------||-----------------------------------------------------||-----------------------------------------------------||0------------4-------------10------------13----------||0------------4-------------10------------13----------||0------------4-------------10------------13----------| . then guitar 2 plays this while the note is falling..
|---------------||---------------| |---------------| |4-----4-----4--||4-----4-----4--| |--5-5---5-5----| . . . .
it is repeated twice and then both guitars play this..
|---------------||---------------| |---------------| |4-----4-----4--||4-----4-----4--| |--5-5---5-5----| . . . .
this is repeated 15 times and then he just slides then both guitars play this..
|---------------------------------------------------------||---------------------------------------------------------||---------------------------------------------------------||--------------------------4--------------454-------------||-------------444444-4-5-7--------------------7-5-4-5-4---||444444-4-5-7----------------444444-4-5-7---------------7-|
...... ...... ...... . . . . . .|---------------------------------------------------------||---------------------------------------------------------||---------------------------------------------------------||--------------------------4--------------454-------------||-------------444444-4-5-7--------------------7-5-4-5-4---||444444-4-5-7----------------444444-4-5-7---------------7-|
...... ...... ...... . . . . . .|----------------------------------------------------------||----------------------------------------------------------||----------------------------------------------------------||-------------5------------565-----5-8-6-5-565-------------||-------5-6-8--------5-6-8-----6-8-------------8-6-5-6-5---||555555---------5555-------------------------------------8-|
...... .... . . . . . . . . . . . .|----------------------------------------------------------||----------------------------------------------------------||----------------------------------------------------------||-------------5------------565-----5-8-6-5-565-------------||-------5-6-8--------5-6-8-----6-8-------------8-6-5-6-5---||555555---------5555-------------------------------------8-|
...... .... . . . . . . . . . . . .|------------------------------------------------------------||------------------------------------------------------------||------------------------------------------------------------||-------------4--------------4--------------4--------------4-||-------4-5-7----------4-5-7----------4-5-7----------4-5-7---||444444---------444444---------444444---------444444---------|
...... ...... ...... ......|---------------------------------------------------------||---------------------------------------------------------||---------------------------------------------------------||-------------4--------------4--------------4-------------||-------4-5-7----------4-5-7----------4-5-7----------4-5-7||444444---------444444---------444444---------444444------| ...... ...... ...... ......
then guitar 2 plays this..
|------------------------------------------------|------||------------------------------------------------|------||------------------------------------------------|------||4---------------6---------------2---------------|---2--||4---------------6---------------2---------------|---2--||4---------------6---------------2---------------|---2--| .but guitar 1 plays this over the top..
|------------------------------------------------||------------------------------------------------||------------------------------------------------||454-------------676-------------232-------------||----7-5-4-0-4-5-----9-7-6---6-7-----5-3-2-0-2-3-||--------------------------9---------------------|
then guitar 2 plays this.. (underneath the solo)
|----------------------------------------------------------||----------------------------------------------------------||----------------------------------------------------------||4--------------------------4------------------------------||4--------------------------4------------------------------||-44444444444444444444444444-444444444444444444444444444444| .......................... ..............................
|----------------------------------------------------------||----------------------------------------------------------||----------------------------------------------------------||-------------5------------565-----5-8-6-5-565-------------||-------5-6-8--------5-6-8-----6-8-------------8-6-5-6-5---||555555---------5555-------------------------------------8-| ...... .... . . . . . . . . . . . .
|---------------------------------------------------------||---------------------------------------------------------||---------------------------------------------------------||--------------------------4--------------454-------------||-------------444444-4-5-7--------------------7-5-4-5-4---||444444-4-5-7----------------444444-4-5-7---------------7-| ...... ...... ...... . . . . . .
|----------------------------------------------------------||----------------------------------------------------------||----------------------------------------------------------||-------------5------------565-----5-8-6-5-565-------------||-------5-6-8--------5-6-8-----6-8-------------8-6-5-6-5---||555555---------5555-------------------------------------8-| ...... .... . . . . . . . . . . . .
|---------------------------------------------------------||---------------------------------------------------------||---------------------------------------------------------||--------------------------4--------------454-------------||-------------444444-4-5-7--------------------7-5-4-5-4---||444444-4-5-7----------------444444-4-5-7---------------7-| ...... ...... ...... . . . . . .
but guitar 1 plays the solo over the top..
|------------2-3-5b---5b-5b-3-5b-353-----17b-17b17b-15-17b-151715---||--------2-3-------------------------4/--------------------------16b||----2-3------------------------------------------------------------||2-3----------------------------------------------------------------||-------------------------------------------------------------------||-------------------------------------------------------------------|
|15-18-19b19b-161816-15b-15b-13-15-16-15-16-18-16-18-2120-18-2120-18||-------------------------------------------------------------------||-------------------------------------------------------------------||-------------------------------------------------------------------||-------------------------------------------------------------------||-------------------------------------------------------------------|
|22b-24b24b-171517/18-----------------------------------------2018--||-----------------------------------------------------------------18||------------------------------9109-7/9-----------------------------||---------------------17-15-14----------454676232-5320-4b-----------||-------------------------------------------------------------------||-------------------------------------------------------------------| . . . ....
|2018--201820--2119--2119--211921--2220--2220--222022-24b-----------||----18------------19----19------------20----22---------------------||--------------------------------------------------------------16-16||-----------------------------------------------------------16b-----||-------------------------------------------------------------------||-------------------------------------------------------------------|
|-------------------------------------------------------------------||-------------------------------------------------------------------||14----14---1513--------2119-2119--2119--23b~-----------------------||--1416---17-----1315-18---------19----19---------------------------||-------------------------------------------------------------------||-------------------------------------------------------------------|
then guitar 2 plays this..
|----------------------------------||----------------------------------||----------------------------------||4-------------6--------------2----||4-------------6--------------2----||4-------------6--------------2----|
then both guitars play this..
|---------------||---------------| |---------------| |4-----4-----4--||4-----4-----4--| |--5-5---5-5----| . . . .this is repeated 4 times and then this is played..
|------------------------| |-------------||------------------------| this is repeated |-------------||------------------------| 4 times but on |-------------||---------4-----4-----4--| fourth time end |---------4---||---------4-----4-----4--| on this -> |---------4---||55555555---5-5---5-5----| |55555555-----| ........ . . . . ........and then the same thing again..
|------------------------| |-------------||------------------------| this is repeated |-------------||------------------------| 4 times but on |-------------||---------4-----4-----4--| fourth time end |---------4---||---------4-----4-----4--| on this -> |---------4---||55555555---5-5---5-5----| |55555555-----| ........ . . . . ........
then (after the pause) both guitars play this..
|---------------||---------------||---------------| |----4----------||----4----------||5-5---5-5-5-5--| . . . . . .this is repeated 20 times (through the different time signatures)and then this is played..
|---------------||---------------||---------------||----4-------4--||----4-------4--||5-5---5-5-5----| . . . . .
this is repeated 4 times and then guitar 2 plays this..
|----------------------------------||----------------------------------||----------------------------------||4-------------6--------------2----||4-------------6--------------2----||4-------------6--------------2----|
but guitar 1 plays this over the top..
|------------------------------------------------||------------------------------------------------||------------------------------------------------||454-------------676-------------232-------------||----7-5-4-0-4-5-----9-7-6---6-7-----5-3-2-0-2-3-||--------------------------9---------------------|
and then both guitars finish with this..
|---------------||---------------| this is played |---------------| twice|4-----4-----4--||4-----4-----4--| |--5-5---5-5----| . . . .
PLEASE RATE AND COMMENT Emails:KoRnRgReAt@msn.com Emails: revolter420666@aol.com,numguitarist@yahoo.com,numguitarist@hotmail.com
Tap to rate this tab
 
# A B C D E F G H I J K L M N O P Q R S T U V W X Y Z