Cinderella - Nobodys Fool tab

Nobodys fool       
by Cinderella
tabbed by : bighabit69@iamwasted.com             
Ahh i may have missed a couple notes in the solo...if i did please lemme know.          C5                   D5                   A5                   F5
      x 3 5 5 x x          x 5 7 7 x x          x 0 2 2 x x          1 3 3 x x x

          G5
      3 5 5 x x x

   Intro
   
 
Gtr I||------0-------1---|-----0-------3---|-----0-------1---|---------------------||||o---1---1---3---3-|---1---1---3---3-|---1---1---3---3-|-------------3------o||||------------------|-----------------|-----------------|---0---0---2---------||||------------------|-----------------|-----------------|-----0---0-----------||||o-0-------0-------|-0-------2-------|-0-------0-------|-3-------------2-3--o||||------------------|-----------------|-----------------|---------------------||
1st Verse|-----0-------1---|-----0-------3---|-----0-------1---|--------------------||---1---1---3---3-|---1---1---3---3-|---1---1---3---3-|-------------3------||-----------------|-----------------|-----------------|---0---0---2--------||-----------------|-----------------|-----------------|-----0---0----------||-0-------0-------|-0-------2-------|-0-------0-------|-3-------------2-3--||-----------------|-----------------|-----------------|--------------------|
C5 D5 Gtr II | | | | / / / /
|-----0-------1---|-----0-------3---|-----0-------1---|--------------------|||---1---1---3---3-|---1---0---3---3-|---1---1---3---3-|-------------3------|||-----------------|-----------------|-----------------|---0---0---2--------|||-----------------|-----------------|-----------------|-----0---0----------|||-0-------0-------|-0-------2-------|-0-------0-------|-3-------------2-3--|||-----------------|-----------------|-----------------|--------------------||
Chorus A5 F5 G5 C5 G5 A5 F5 G5 C5 G5 Gtr II | | | | | | || | || | | | | | | | || | || | / / / / / x // x // / / / / / / x // x // /
Gtr I|-----0-----------|-------------------|-----0-----------|-------------------|||---1---1---1---1-|------3----1-------|---1---1---1---1-|------3----1-------|||-------------0---|---4----4----0---0-|-------------0---|---4----4----0---0-|||-----------------|---------------3---|-----------------|---------------3---|||-0---------------|-----------3-------|-0---------------|-----------3-------|||---------1-------|-3-----------------|---------1-------|-3-----------------||
Gtr IV|-------0--------1---|------0--------3---|--------0------------1---||-----1---1----3---3-|----1---1----3---3-|-----1-----1-------3---3-||--------------------|-------------------|-------------------------||--------------------|-------------------|-------------------------||--0--------0--------|-0--------2--------|-0-------------0---------||--------------------|-------------------|-------------------------|
|
| Gtr III| < < < <|--------------------|-------------------|-------------------------||-10\-------8\-------|-------------------|-------------------------||--------------------|-9\-------7\-------|-4s5---(5)-5-5-5s7---9---||--------------------|-------------------|-------------------------||--------------------|-------------------|-------------------------||--------------------|-------------------|-------------------------|
|-----------------------------------------|||-----------------------------3-----------|||-----------0-------0-----2---------------|||---------------0-----0-------------------|||--3----------------------------------2-3-|||-----------------------------------------||
|
|-----------------------------------------|||-----------------------------------------|||-10-9h10p9-7-9-7-5-7-4-5-4-5-7-5h7p5-4---|||---------------------------------------5-|||-----------------------------------------|||-----------------------------------------||
2nd Verse|------0--------1---|-----0-------3---||---1-----1---3---3-|---1---1---3---3-||-------------------|-----------------||-------------------|-----------------||-0---------0-------|-0-------2-------||-------------------|-----------------|
|
|-------------------|-----------------||-------------------|-----------------||-------------------|-----------------||-5s7-(7)-----------|-----------------||-------------------|-----------------||-------------------|-----------------|
C5 D5 A5 Gtr II | | | | / / / /
|-----0-------1---|-------------------|-----0-------1---|-----0-------3----||---1---1---3---3-|-------------3-----|---1---1---3---3-|---1---1---3---3--||-----------------|---0---0---2-------|-----------------|------------------||-----------------|-----0---0---------|-----------------|------------------||-0-------0-------|-3-------------2-3-|-0-------0-------|-0-------2--------||-----------------|-------------------|-----------------|------------------|
C5 D5 | | / /
G|-----0-------1---|-----------------||---1---1---3---3-|-------------3---||-----------------|---0---0---2---2-||-----------------|-----0---0-------||-0-------0-------|-3---------------||-----------------|-----------------|
Chorus A5 F5 G5 C5 G5 | | | | || | | | | / / / x // x / / /
tr III 4x||-----0---------1---|-----------------------||||o--1---1-----1---1-|--------3-----1-------o||||---------2s3-------|-----4----4-4---0---0--||||-------------------|-3s5--------------3----||||o------------------|----------------------o||||-------------------|-----------------------||
A5 | | / /
Gtr IV Gtr V|-----0-------1---|-----0-------3---|-----0-------1---||---------|||---1---1---3---3-|---1---1---3---3-|---1---1---3---3-||---------|||-----------------|-----------------|-----------------||---------|||-----------------|-----------------|-----------------||---------|||-0-------0-------|-0-------2-------|-0-------0-------||-0-2-3-5-|||-----------------|-----------------|-----------------||---------||
PM| PM| PM| PM| PM| PM| PM| PM||-------------------------|-------------------------||-------------------------|-------------------------||-------------------------|-------------------------||-6-----6-----4-----4-----|-4-----4-----5-----5-----||-7-----7-----5-----5-----|-5-----5-----7-----7-----||-0-x-x-0-x-x-0-x-x-0-x-x-|-0-x-x-0-x-x-0-x-x-0-x-x-|
|
| Gtr III|-------------------------|-------------------------||-------------------------|-------------------------||-------------------------|-------------------------||-------------------------|-------------------------||-------------------------|-------------------------||-------------------------|-------------------------|
PM| PM| PM| PM||-------------------------------||-------------------------------||-------------------------------||-6--------6-------4-----4------||-7--------7-------5-----5------||-0---x-x--0--x-x--0-x-x-0-x-x--|
|
|-------------------------------||-8s9-----(9)-----10------------||-------------------------------||-------------------------------||-------------------------------||-------------------------------|
Guitar solos I & II Gtr IV PM| PM| PM| PM||----------------------------|----------||--------0------------1-------||----------------------------|----------||-----1-----1-----3-------3---||----------------------------|-2--------||-----------------------------||--4-----4-------5-----5-----|-2--------||-----------------------------||--5-----5-------7-----7-----|-0--------||-0-----------0---------------||--0-x-x-0--x-x--0-x-x-0-x-x-|----------||-----------------------------|
|
|----------------------------|----------||-----------------------------||-15-------13---12-----------|----------||-----------------------------||----------------------------|----------||-------------------4h5p4-----||----------------------------|-7--------||-5h7---(7)---7p5---------7-5-||----------------------------|-7--------||-----------------7-----------||----------------------------|-5--------||-----------------------------|
|-------0-----------------3------|--------------------0--------------------------1-------||-----1---------1------3-----3---|----------------1------1------------------3--------3---||--------------------------------|-------------------------------------------------------||--------------------------------|-------------------------------------------------------||-0-----------------2------------|--------0-------------------------0--------------------||--------------------------------|-------------------------------------------------------|
|
| ~~~~~~~~~|--------------------------------|-------------------------------------------------------||--------------------------------|-------------------------------------------------------||---------7b9==(7)r(7)---(7)-9-9-|-9b12==(9)-(9)r(9)-(9)-9-9-9b12==(9)r(9)-(9)-7-9p7s5-7p||-5s7----------------------------|-------------------------------------------------------||--------------------------------|-------------------------------------------------------||--------------------------------|-------------------------------------------------------|
C5 D5 Gtr II | | / /
|---------------------------------|||------------------------3--------|||---0-----------0------2----------|||------0------------0-------------|||-3--------------------------2-3--|||---------------------------------||
|
| ~~~~~~~~|---------------------------------|||------------------------6p5------|||-5---(5)-7b9==(7)r(7)-------7-5--|||---------------------------------|||---------------------------------|||---------------------------------||
|------------0----------1-------|---------------0------------------3-------||----------1---1-----3------3---|---------1--------1------------3------3---||-------------------------------|------------------------------------------||-------------------------------|------------------------------------------||-------0--------0--------------|-0-------------------------2--------------||-------------------------------|------------------------------------------|
|
| \1| T|-------------------------------|------------------------------------------||-8b10-(8)-------5h6h8--5h6p5---|-5----------------------------------------||-7b9--(7)--------------------7-|---7b9==(7)-10-7r(7)-5h7p5-4--(4)-4h5p4---||-------------------------------|----------------------------------------5-||-------------------------------|------------------------------------------||-------------------------------|------------------------------------------|
C5 Gtr II | | | | | | | | | | | | / x / / x / / x / / x /
Gtr III|--------0--------------1-------|----------------------------------------12-13-15-||-----1-----1-------3-------3---|-------------------------------12-13-15----------||-------------------------------|-------------------------12-14-------------------||-------------------------------|----------12----14-12-15-------------------------||-0-------------0---------------|-12-15-14----15----------------------------------||-------------------------------|-------------------------------------------------|
|
| PM----------------||-------------------------------|-------------------------------------------17-19-||-------------------------------|----------------------------------17-18-20-------||-------------------------------|-------------------------16-17-19----------------||-7s9s7-(7)-7-5-7-9-7-5-7-5-----|----------15----17-15-19-------------------------||---------------------------7-5-|-15-19-17----19----------------------------------||-------------------------------|-------------------------------------------------|
D5 | | | | | | | / x / / x / /
|-15b17-(15)-15-13-12---------------------------15b17-(15)----|||---------------------15--13-12-------------------------------|||-------------------------------14-12-------------------------|||-------------------------------------15-14--12---------------|||-------------------------------------------------------------|||-------------------------------------------------------------||
|
|-20b22-(20)-20-19-17---------------------------20b22-(20)----|||---------------------20--18-17-------------------------------|||-------------------------------19-17-16----------------------|||----------------------------------------19--17---------------|||-------------------------------------------------------------|||-------------------------------------------------------------||
Chorus A5 F5 G5 C5 G5 | | | | || | || | / / / x // x // /
Gtr I||------0-----------|-------------------|||o---1---1---1---1-|------3----1-------|||--------------0---|---4----4----0---0-|||------------------|---------------3---|||o-0---------------|-----------3-------|||----------1-------|-3-----------------|
A5 F5 G5 C5 G5 | | | | || | || | / / / x // x // /
|-----0-----------|---------------------|||---1---1---1---1-|------3----1--------o|||-------------0---|---4----4----0---0---|||-----------------|---------------3-----|||-0---------------|-----------3--------o|||---------1-------|-3-------------------||
Outro A5 F5 G5 C5 G5 | | | | | | | | ||| | / / / / / x / / x// /
Gtr III ~~|--------8----------8--------8---|---------------8b10-8-7---||-8b10-----8b10-------8b10-------|-8----------------------8-||--------------------------------|--------------------------||--------------------------------|--------------------------||--------------------------------|--------------------------||--------------------------------|--------------------------|
|
| Gtr V|--------------------------------|--------------------------||-8b10-----8b10r(8)--------5-----|-8p6p5--------------------||--------5----------5-7--------7-|-------7-5-7--------------||--------------------------------|--------------------------||--------------------------------|--------------------------||--------------------------------|--------------------------|
A5 F5 G5 C5 G5 | | | | | | | | ||| | / / / / / x / / x// /
~~|--------8----------8--------8---|---------------8b10-8-7------------||-8b10-----8b10-------8b10-------|------------------------8-(8)------||--------------------------------|-7---------------------------------||--------------------------------|------------------------------5----||--------------------------------|-----------------------------------||--------------------------------|-----------------------------------|
|
|--------------------------------|-----------------------------------||-8b10-----8b10r(8)--------5-----|-8p6p5-----------------------------||--------5----------5-7--------7-|-------7-5-7-----------------------||--------------------------------|-----------------------------------||--------------------------------|-----------------------------------||--------------------------------|-----------------------------------|
A5 F5 | | | | / / / /
|---------------------------------------8----8-10-8-10-||-------------------------8---8-10-8-10---10-----------||-------5---5-7-5-7-9-7-9---9--------------------------||-7-5-7---7--------------------------------------------||------------------------------------------------------||------------------------------------------------------|
G5 C5 G5 | | | | | | | | / x / / x / / /
~~|-15b17-(15)-15b17-(15)--15b17-(15)-15b17-(15)--15b17-(15)--15---||----------------------------------------------------------------||----------------------------------------------------------------||----------------------------------------------------------------||----------------------------------------------------------------||----------------------------------------------------------------|
A5 F5 G5 C5 G5 A5 F5 | | | | | |||||| | | | | | / / / / / x//x// / / / / /
~~~~~~~~~~|------------------------------------|----------------|----------------------||------------------------------------|----------------|----------------------||------------------------------------|--------5-------|----------------------||------------x\----------------------|----------9-7-5-|-7---7-5h7-(7)--9-10--||-12\--------x\----------------------|----------------|----------------------||-12\------------------1-----(1)-3s5-|-3--------------|----------------------|
|
| Gtr V|-----------------8----8---------8---|-7--------------|----------------------||------------5------8-11b13----------|--------5-------|----------------------||--------5------5--------------------|----------7-5-4-|-5---5---5------5-----||--7p5h7---7-------------------------|----------------|----------------------||------------------------------------|----------------|----------------------||------------------------------------|----------------|----------------------|
G5 C5 G5 A5 F5 G5 C5 G5 | |||||| | | | | | | |||||| | / x//x// / / / / / / x//x// /
|----------------|---------------------|----------------||----------------|---------------------|----------------||--------5-------|---------------------|--------5-------||-9--------9-7-5-|-7---7-5h7-(7)--9-10-|-9--------9-7-5-||----------------|---------------------|----------------||----------------|---------------------|----------------|
|
|----------------|---------------------|----------------||--------5-------|---------------------|--------5-------||-7--------7-5-4-|-5---5---5------5----|-7--------7-5-4-||----------------|-------------------7-|----------------||----------------|---------------------|----------------||----------------|---------------------|----------------|
A5 F5 G5 C5 G5 | | | | | |||||| | / / / / / x//x// /
|---------------------|----------------*||---------------------|----------------*||---------------------|--------5-------*||-7---7-5h7-(7)--9-10-|-9--------9-7-5-*||---------------------|----------------*||---------------------|----------------*|
|
|---------------------|----------------*||---------------------|--------5-------*||-5---5---5------5----|-7--------7-5-4-*||---------------------|----------------*||---------------------|----------------*||---------------------|----------------*|===========
cinderella - nobodys fool tabbed by Nathan Solt (creepingdeath17044@yahoo.com) from Lewistown ,PA From the album night songs
1)light E|------0-----------1-------------0-------------3-----------0-----------1----|B|----1---1------3-----3-------1-----1-------3-----3-----1-----1-----3-----3-|G|---------------------------------------------------------------------------|D|---------------------------------------------------------------------------|A|-0----------0-------------0------------2-------------0----------0----------|E|---------------------------------------------------------------------------|
E|----------------------------| B|-----------------3----------| G|-----0---0----2-------------| D|-------0---0----------------| A|--3------------------2--3---| E|----------------------------|
2)heavy E|--------|----------------------------------|B|--------|----------------------------------|G|-5----7-|----------------------------------|D|-5----7-|---2-----------------------5--4---|A|-3----5-|---0--3--5--5--5--5--5--5--3--2---|E|--------|------1--3--3--3--3--3--3---------| PM... .... realize.....im not your fool
hey to all my friends ============================================================= NOBODY'S FOOL Words and music by TOM KEIFER From the Album NIGHT SONGS/ 1986Polygram records Submitted by JASON ROBERT ENFINGER This is the beginning riff
E-|------0-----------1-------------0-------------3-----------0-----------1----|B-|----1---1------3-----3-------1-----1-------3-----3-----1-----1-----3-----3-|G-|---------------------------------------------------------------------------|D-|---------------------------------------------------------------------------|A-|-0----------0-------------0------------2-------------0----------0----------|E-|---------------------------------------------------------------------------|
E-|----------------------------| This is what I got so far from the song and itB-|-----------------3----------| Seems correct. I hope you enjoy. Hello to all myG-|-----0---0----2-------------| friends and I LOVE YOU MEEGAN ESTES!! D-|-------0---0----------------| A-|--3------------------2--3---| J.R. KEESEVILLE, NEW YORK E-|----------------------------|
Tap to rate this tab
 
# A B C D E F G H I J K L M N O P Q R S T U V W X Y Z