Claude Sirois - Le Phoque En Alaska tab

 le phoque en alaska tab by claude sirois


             guitare classique


|-----0-----------------------------------------------------||-3\4-----3---1---0---1---3---1-------1----0---1---3--------||-------0---0---0---0---0---0---0--0---------0---0----------||--------------------------------2--2-----------------------||-----3---2---0-------0---2---3----------------0---2--------||-----------------3------------------------3----------------|
|----0-----0-0-----------0-1--3---3----0-----4-------4-4----||-3\4--1---1-1-3-1-----1--------0----0---0-----5---5--------||--------0---------0-----------------------------4----------||--------------------2-----------------0--------------------||----3-----------3----------------2----------7--------------||-----------------------------3-----------------------------|
|-5------5-5--3---1---3---3\5--3-------3----------------0-----||---6----6-6--5-----0---0--------1---1---1--2-----3-------2---||-----7-------5--------------------0----------2-----2-------2-||-0---------------------------------------------2-----2-------||------------------------------3------------0-----------------||----------------3--------------------------------------------|
|---1--1---0---------------0-1--2-------5-----3-------------||------3--------3--------3--------4---4---4-----0---0-------||----2---2---2----0----0------------2-------------0---------||-0-----------------0---------------------------------------||-------------------------------2---------------------------||---------------3-----------------------------0-------------|
|---2-3--5-------5-5-5------------3------3-3-2--1-----1-1---||--1-------7---7---------8---7------0-------------0---------||-0----------5---------5---5---5------0-------------0-------||-----------------------------------------------------------||--------5-----------5--------------------------------------||---------------------------------3-------------3-----------|
|----0-----0-0-----------0-1--3---3----0-----4-------4-4----||-3\4--1---1-1-3-1-----1--------0----0---0-----5---5--------||--------0---------0-----------------------------4----------||--------------------2-----------------0--------------------||----3-----------3----------------2----------7--------------||-----------------------------3-----------------------------|
|-5------5-5--3---1---3---3\5--3-------3----------------0-----||---6----6-6--5-----0---0--------1---1---1--2-----3-------2---||-----7-------5--------------------0----------2-----2-------2-||-0---------------------------------------------2-----2-------||------------------------------3------------0-----------------||----------------3--------------------------------------------|
|---1--1---0---------------0-1--2-------5-----3-------------||------3--------3--------3--------4---4---4-----0---0-------||----2---2---2----0----0------------2-------------0---------||-0-----------------0---------------------------------------||-------------------------------2---------------------------||---------------3-----------------------------0-------------|
|---2-3--5-------5-5-5---8---5----3------3-3-2--1-----1-1---||--1-------7---7--------------------0-------------0---------||-0----------5---------5---5---5------0-------------0-------||-----------------------------------------------------------||--------5-----------5--------------------------------------||---------------------------------3-------------3-----------|
|------0-------0------------------------------------------||-3\4----1---1---1-3---2---0---1-------0-1--3---1---0-----||----------0---------0---0---0---2---2--------1---1-0-0---||----------------------------------2------------2---------||------3-----------2---0-------0------------2-------------||--------------------------3------------------------0-----|
|----------------------------1-------1-1-1---3---3\5-----||-1-------0-1--3---1----0------3---3-------0---0---------||---2---2--------1---1--0-0------2-----------------------||-----2------------2---------0---------------------------||-0------------2-----------------------------------------||-----------------------0----------------3---------------|
|-3-------3--------------------------||---1---1---1--0----1---3------------||-----0----------0----0---0----------||------------------------------------||-3-----------------0---2------------||--------------3---------------------|
|------0-------0------------------------------------------||--------1---1---1-3---2---0---1-------0-1--3---1---0-----||----------0---------0---0---0---2---2--------1---1-0-0---||----------------------------------2------------2---------||------3-----------2---0-------0------------2-------------||--------------------------3------------------------0-----|
|----------------------------1-------1-1-1---3---3\5-----||-1-------0-1--3---1----0------3---3-------0---0---------||---2---2--------1---1--0-0------2-----------------------||-----2------------2---------0---------------------------||-0------------2-----------------------------------------||-----------------------0----------------3---------------|
|-3-------3--------------------------||---1---1---1--0----1---3------------||-----0----------0----0---0----------||------------------------------------||-3-----------------0---2------------||--------------3---------------------|
|----0-----0-0-----------0-1--3---3----0-----4-------4-4----||------1---1-1-3-1-----1--------0----0---0-----5---5--------||--------0---------0-----------------------------4----------||--------------------2-----------------0--------------------||----3-----------3----------------2----------7--------------||-----------------------------3-----------------------------|
|-5------5-5--3---1---3---3\5--3-------3----------------0-----||---6----6-6--5-----0---0--------1---1---1--2-----3-------2---||-----7-------5--------------------0----------2-----2-------2-||-0---------------------------------------------2-----2-------||------------------------------3------------0-----------------||----------------3--------------------------------------------|
|---1--1---0---------------0-1--2-------5-----3-------------||------3--------3--------3--------4---4---4-----0---0-------||----2---2---2----0----0------------2-------------0---------||-0-----------------0---------------------------------------||-------------------------------2---------------------------||---------------3-----------------------------0-------------|
|---2-3--5-------5-5-5------------3------3-3-2--1-----1-1---||--1-------7---7---------8---7------0-------------0---------||-0----------5---------5---5---5------0-------------0-------||-----------------------------------------------------------||--------5-----------5--------------------------------------||---------------------------------3-------------3-----------|
|------0------0-0-0--3-5--6------6-6-6-5-----5-----5-5-5------||-3\4----1------------------8------------8-----6---------8-6--||----------0------------------7------------------5------------||------------------------5------------------7-----------------||------3------------------------------------------------------||-------------------------------------------------------------|
|--4------4-4-4-6-4---3-----------------3------------0------||----6------------------5---5-5-5-6-5-----0----3-3-3---3----||------5------------------5-----------------0---------------||-6------------------5--------------------------------------||-----------------------------------------------------------||--------------------------------------3--------------------|
|--0-------------0--------------------||----1---1-1-1-3-----0---1---3--------||------0---------------0---0---0------||-------------------------------------||-3----------------------0---2--------||--------------------3----------------|
|------0------0-0-0--3-5--6------6-6-6-5-----8-----5-5-5------||--------1------------------8------------8-----5---------8-6--||----------0------------------7------------------6------------||------------------------5------------------7-----------------||------3------------------------------------------------------||-------------------------------------------------------------|
|--4------4-4-4-6-4---3-----------------3------------0------||----6------------------5---5-5-5-6-5-----0----3-3-3---3----||------5------------------5-----------------0---------------||-6------------------5--------------------------------------||-----------------------------------------------------------||--------------------------------------3--------------------|
|--0-------------0--------------------||----1---1-1-1-3-----0---1---3--------||------0---------------0---0---0------||-------------------------------------||-3----------------------0---2--------||--------------------3----------------|
|--0-----0-0-3-0------------------------------------0----||----1-----------1---3----1---3----1---------------0-----||------0---------------0----0---0----0---0---0----1------||--------------------------------------2---2-----2-------||-3-----------------------0---2----3------------3--------||-------------------3------------------------------------|
steve,,,, pompom@sympatico.ca
Tap to rate this tab
 
# A B C D E F G H I J K L M N O P Q R S T U V W X Y Z