Cockburn Bruce - Rainfall tab

Tablatura de NICO M. (nicokbbl@hotmail.com)

Artista: The Vines
Cancion: Rainfall
Album: Winnig Days (2004)  



1|-----------0------------------------3--------|2|-------------1------------------------3------|3|----0----------0-------------0----------0----|4|------2----------2-------------0----------0--|\5|--3-----3------------------------2-----------| \6|--------------------------3------------------| \
\ |-----> x2
/ 1|------------2--------------------------------| /2|-----3---------3---3-------------------------| /3|-------2---------2---------------------------|/4|--0------0-----------------------------------|5|---------------------------------------------|6|---------------------------------------------|
1|-----------0------------------------3--------|2|-------------1------------------------3------|3|----0----------0-------------0----------0----|4|------2----------2-------------0----------0--|\5|--3-----3------------------------2-----------| \6|--------------------------3------------------| \
\ |-----> x2
/ 1|------------2--------------------------------| /2|-----3---------3---3-------------------------| /3|-------2---------2---------------------------|/4|--0------0-----------------------------------|5|---------------------------------------------|6|---------------------------------------------|
We were hiding from the rain and the thunder I've been staring at the day as I wonder....
1|-----------0------------------------3--------|2|-------------1------------------------3------|3|----0----------0-------------0----------0----|4|------2----------2-------------0----------0--|\5|--3-----3------------------------2-----------| \6|--------------------------3------------------| \
\ |-----> x2
/ 1|------------2--------------------------------| /2|-----3---------3---3-------------------------| /3|-------2---------2---------------------------|/4|--0------0-----------------------------------|5|---------------------------------------------|6|---------------------------------------------|
So here we are again we're outnumbered This feeling is a weight that I'm under
1|-----------0------------------------3--------|2|-------------1------------------------3------|3|----0----------0-------------0----------0----|4|------2----------2-------------0----------0--|\5|--3-----3------------------------2-----------| \6|--------------------------3------------------| \
\ |-----> x2
/ 1|------------2--------------------------------| /2|-----3---------3---3-------------------------| /3|-------2---------2---------------------------|/4|--0------0-----------------------------------|5|---------------------------------------------|6|---------------------------------------------|
Thought I heard her call my name in the summer Is it ever change in my slumber
1|----------3------------|2|------------3----------|3|----0---------0--------|4|------0---------0------|5|--------2--------------|6|--3--------------------|
I can hear myself walking through this world.
1|------------2-------------------------------| 2|-----3---------3---3------------------------|3|-------2---------2--------------------------|4|--0------0----------------------------------|5|--------------------------------------------|6|--------------------------------------------|
1|-----------0-----------|2|-------------1---------|3|----0----------0-------|4|------2----------2-----|5|--3-----3--------------|6|-----------------------|
Can't believe they've started talking so retarded I don't know, I don't know... Let me go Solo
1|-------------------------------------------------|2|-10~-12~-13~-15~-17~-15~-13~-12~(2x)--15----14---|3|-----------------------------------------15---14-|4|-------------------------------------------------|5|-------------------------------------------------|6|-------------------------------------------------|
1|-------------------------------------------------|2|-------------------------------------------------|3|---------------------------------7-5-7--9-7-9s11-|4|-------------------------------------------------|5|--5-5h7-5------------------5-5-------------------|6|-----------8--7--5---3-3h5-----------------------|
1|-----------------------------------------|2|-----------------------------------------|3|--11-11--9-9--7-7--5-5-------------------|4|-----------------------------------------|5|-----------------------------------------|6|-----------------------------------------|
1|-----------0------------------------3-------|2|-------------1------------------------3-----|3|----0----------0-------------0----------0---|4|------2----------2-------------0----------0-|\5|--3-----3------------------------2----------| \6|--------------------------3-----------------| \
\ |-----> x4
/ 1|------------2-------------------------------| /2|-----3---------3---3------------------------| /3|-------2---------2--------------------------|/4|--0------0----------------------------------|5|--------------------------------------------|6|--------------------------------------------|
Oooooh Ooooooh Ahhhhh Oooooh Ooooooh Ahhhhh Ooooh Ooooooh Ahhhhh Ooooh Ooooooh Ahhhhh
Tap to rate this tab
 
# A B C D E F G H I J K L M N O P Q R S T U V W X Y Z