Colour Haze - Love tab

-------------------------------------------------------------------------------
			     Love - Colour Haze
-------------------------------------------------------------------------------


-------------------------------------------------------------------------------
Sorry for the strange tab structure. I had to rewrite this tab otherwise it
wouldn't fit the U-G website. Enjoy this piece of epicness !
-------------------------------------------------------------------------------

Tabbed by: Meuwh
Email: -

Tuning: C - G - C - F - A - D

************************************

| /   slide up
| \   slide down
| h   hammer-on
| p   pull-off
| ~   vibrato
| +   harmonic
| x   Mute note
| b   Bend
| pb  Pre-bend
| br  Bend release
| pbr Pre-bend release
| brb Bend release bend

************************************

|--------------------------------------------------------------------------||-13--12h13p12---12-13------------13----/15--------------------------------||-10-------------------12/14-10---10--------14-14p12-14-----10-12h13p12p10-||-10------------------------------10---------------------12----------------||--------------------------------------------------------------------------||--------------------------------------------------------------------------|
|--------------------------------||--------------------------------||-12-12p10-----------------------||----------12p10-12--------------||--------------------------------|
|-13--12--15---------------12--------------------------||-10--10--12--13----13-----10-----15----10----10--10---||-10--10--12--10----10-----10-----12----9-----7------7-||-10--10--12--10----10---10----12-12--9-9---7-7--------||------------------------------------------------------||------------------------------------------------------|
|----------------------------------------------------------||-------------------------------------------------------15-||------------10--------12-----------10----------12--12-----||-------10h12--12-12/14--14---------10--------12------12---||-----------------------------10h12------12h14-------------||-0--------------------------------------------------------|
|------17-------------------------------------------------------------------||---15----15----17p15-17----------------------------------------------------||-14--------14------------16h17-17-----------------14-----------------------||----------------------------------14h15-15---14h15--15p14--14--14-17-----0-||---------------------------------------------------------17--17-----15-----||-----------------------------------------------------------------------0---|
|------13/15\13--12/13-12-10-10/12--8-8\7/8--8/10-||-13---11/13\11--10/11-10--8--8/10--6-6\5/6--6/8--||-10---10/12\10---9/10--9--7--7/9---5-5\4/5--5/7--||-10----------------------------------------------||-------------------------------------------------||-------------------------------------------------|
|-------------------------------------------------------------||-------------------------------------------------------------||------7-7-----7-7-----7--------------------------------------||-7h10-----7h10----7h10-10p7-7-----------------10-12\---------||------------------------------10-10/12--10h12--------8h10-8--||-------------------------------------------------------------|
|--------13-15-15/17-15--13-15\13--12/13\12----15--------------------------||-13/15-------------------------------------13----13--12/13\12-----15------||--------10-12-12/14-12--10-12\10---9/10\9-----12---------------12----12/14||-10/12-------------------------------------10----10---9/10\9------12------||---------------------------------------------------------------10----10/12||--------------------------------------------------------------------------|
|---------------------------------------------------------------------------||---------------------13-15-15--------12-15-15-15/17--13/15-----------------||-14\12--12/14--12/14-----------12/14------------------------12/14-12--10\9-||---------------------10-12-12--------10-12-12-12/14--10/12-----------------||-12\10--10/12--10/12-----------10/12------------------------10/12-10---8\7-||---------------------------------------------------------------------------|
|------------||------------||-10\9--5--7-||------------||--8\7--3--5-||------------|
|--------------------------------------------------------------------------||--------------------------------------------------------------------------||--------------------------------------------------------------------------||---------------7----7------7----10-0---------------10---------10----------||-10p8p7-7-8-7h8--7h8--8-7h8--8p7--------10p8p7-7-8----8-7-7h8----8-8h10---||------------------------------------0-------------------------------------|
|------------------------------------------------------||------------------------------------------------------||------------------------------------------------------||-----------0-------------------7----7------7----10-0--||--8-7h8-7--------10p8p7-7-8-7h8--7h8--8-7h8--8p7------||-------------0--------------------------------------0-|
|--------------------------------------------------------||--------------------------------------------------------||--------------------------------------------------------||-------------10---------10-------------0-0--------------||--10p8p7-7-8----8-7-7h8----8-8h10--8-7------------------||-------------------------------------------0------------|
|------------------------------------------------------||------------------------------------------------------||------------------------------------------------------||---------------------------------------------10--0----||-10/12--8-8h10p8p7-7-8---10/12--8-8h10p8p7-8----------||---------------------------------------------------0--|
----------------------------------------------------------------------------------------------------------------------------------------------------------------------------------------------------10----------------0----------10/12--8-8h10p8p7-7-8--7h8----8-8h10-8-7h8-7-----------------------------------------------------------0-------
|------------------------------------------------------||------------------------------------------------------||------------------------------------------------------||---------------------------------------------10--0----||-10/12--8-8h10p8p7-7-8---10/12--8-8h10p8p7-8----------||---------------------------------------------------0--|
|--------------------------------------------------------||--------------------------------------------------------||--------------------------------------------------------||---------------------10----12p10-12---14p12-14----------||--10/12--8--10-10/12----12---------------------15-------||--------------------------------------------------------|
|-----------------------------------------12h13p12-12-12--15-15-15-||----------------------13h15p13-15-15-15---------------------------||------------------------------------------------------------------||--12-12h14p12-----------------------------------------------------||--------------15-12-----------------------------------------------||------------------------------------------------------------------|
|---------------------12---------------------||-13--13p12-13---12h13--13p12--12--12-15-----||----------------------------14--14----------||--------------------------------------------||--------------------------------------------||--------------------------------------------|
|----------------------17----------------------------||-------------------15----15------17p15-17-----------||--12\11-12-14---14----------14-------------16h17-17-||----------------------------------------------------||----------------------------------------------------||----------------------------------------------------|
|----------------------------------------------------------||----------------------------------------------------------||----------------14----------------------------------------||-14h15-15--14h15--15p14--14--14-17------------------------||-----------------------17--17-----15----------------------||----------------------------------------------------------|
|---------------------------------------------------------10-||-------------------------------------------------------10---||--------7--------------------------------------------10-----||--7h8h10-10p8p7--7------7-7h8p7--7----------------/12-------||---------------10-8p7-8--------10-10-8-10-10/12-------------||------------------------------------------------------------|
|---------------------------------------------------||-13p10---10----------------------------------------||------12---10h12p10\9--9h10p9-9----9-12------------||--------------------------------12------10---------||---------------------------------------------------||---------------------------------------------------|
|-------------12----12-13-12-13/15-13--/20-20-20-20-------------------------||-13h15p13-15----15---------------------------------20-18-18h20-20-17h18-17-||---------------------------------------------------------------------------||---------------------------------------------------------------------------||---------------------------------------------------------------------------||---------------------------------------------------------------------------|
|---------------------------------------||---------------------------------------||---------------------------------------||----------------7----7------7----10-0--||--10p8p7-7-8-7h8--7h8--8-7h8--8p7------||---------------------------------------|
|--------------------------------------------------------------||--------------------------------------------------------------||--------------------------------------------------------------||--------------10---------10-----------------0-----------------||---10p8p7-7-8----8-7-7h8----8-8h10--8-7h8-7-------------------||-0---------------------------------------------0--------------|
|---------------------------------------||---------------------------------------||---------------------------------------||----------------7----7------7----10-0--||--10p8p7-7-8-7h8--7h8--8-7h8--8p7------||---------------------------------------|
|--------------------------------------------------------------||--------------------------------------------------------------||--------------------------------------------------------------||--------------10---------10-----------------0-0---------------||---10p8p7-7-8----8-7-7h8----8-8h10--8-7h8-7-------------------||-0----------------------------------------------0-------------|
|----------------------------------------------------||----------------------------------------------------||----------------------------------------------------||----------------------------------------------10--0-||--10/12--8-8h10p8p7-7-8---10/12--8-8h10p8p7-8-------||----------------------------------------------------|
|-----------------------------------------------------------||-----------------------------------------------------------||-----------------------------------------------------------||--------------------------------10----------------0--------||-----10/12--8-8h10p8p7-7-8--7h8----8-8h10-8-7h8-7----------||-0--------------------------------------------------0------|
|---------------------------------------------------||---------------------------------------------------||---------------------------------------------------||---------------------------------------------10--0-||-10/12--8-8h10p8p7-7-8---10/12--8-8h10p8p7-8-------||---------------------------------------------------|
|-----------------------------------------------------------||-----------------------------------------------------------||-----------------------------------------------------------||-----10/12--------------10----12p10-12---14p12-14----------||------------8--10-10/12----12---------------------15-------||-----------------------------------------------------------|
|-----------------------------------------------------||-----------------------------------------------------||-----------------------------------------------------||--12-12h14p12------------14br-12-14--14b-14-12-------||--------------15-12----------------------------15/17-||-----------------------------------------------------|
|-----------------------------------||-----------------------------------||-----------------------------------||--14br-12-14-12-14b-14-12----------||--------------------------15-15-15-||-----------------------------------|
|---------------------------------------------------------------------||---------------------------------------------------------------------||---------------------------------------------------------------------||--14br-12-14-12-14--14b-14-12--------14br-12-14-12-14b-14-12---------||------------------------------15/17--------------------------15-12-12||---------------------------------------------------------------------|
|-----------------------------------------||-----------------------------------------||---------------------14------------------||----14br-12-14-12-14----12-12-14-14br-12-||-----------------------------------------||-----------------------------------------|
|---------------------------------------||---------------------------------------||---------------------------------------||-----12-12-14--------12-12-14-14br-12--||--15----------12--15-------------------||---------------------------------------|
|--------------------------------------------------------------------||--------------------------------------------------------------------||--------------------------------------------------------------------||---14br-12-14-12-14b-14-12-------14br-12-14-12-14b-14-12------------||---------------------------12/15-------------------------15--15-15--||--------------------------------------------------------------------|
|---------------------------------------------------------------------------||---------------------------------------------------------------------------||------------------14-------------------------------------------------------||-14br-12-14-12-14----12-12-14-14br-12-----12-12-14--------12-12-14-14br-12-||---------------------------------------15-----------12-15------------------||---------------------------------------------------------------------------|
|--------------------------------------------------||--------------------------------------------------||--------------------------------------------------||-12--12--14br-12--14p12--12-----------------------||-12--12-------12--12-----12--15-12--15/17--17\15--||-12--12-------12--12-----12--12-12--12------------|
|------------------------------------------------------------||------------------------------------------------------------||------------------------------------------------------------||---12--12--14br--12--14p12--12------------------------------||---12--12--------12--12-----12--15--12--15--15--------------||---12--12--------12--12-----12--12--12--12--12--------------|
|--------------------------------------------------------------------------||--------------------------------------------------------------------------||--------------14----------------------------------------------------------||12-12-14br-12----12-12-14-14br-12----12-12--14-14--12--14--15-15--14-15/17||12-12-----------------------------15--------------------------------------||12-12---------------------------------------------------------------------|
|--------------------------------------------------||--------------------------------------------------||--------------------------------------------------||-12--12--14br-12--14p12--12-----------------------||-12--12-------12--12-----12--15-12--15/17--17\15--||-12--12-------12--12-----12--12-12--12------------|
|------------------------------------------------------------||------------------------------------------------------------||------------------------------------------------------------||---12--12--14br--12--14p12--12------------------------------||---12--12--------12--12-----12--15--12--15--15--------------||---12--12--------12--12-----12--12--12--12--12--------------|
|--------------------------------------------------||--------------------------------------------------||--------------------------------------------------||-12--12--14br-12--14p12--12-----------------------||-12--12-------12--12-----12--15-12--15/17--17\15--||-12--12-------12--12-----12--12-12--12------------|
|------------------------------------------------------------||------------------------------------------------------------||------------------------------------------------------------||---12--12--14br--12--14p12--12------------------------------||---12--12--------12--12-----12--15--12--15--15--------------||---12--12--------12--12-----12--12--12--12--12--------------|
|--------------------------------------------------------||--------------------------------------------------------||--------------------------------------------------------||---17h19-19p17-19--19--------------------17h19-19p17-19-||-----------------------17-17h19-19br-17-----------------||--------------------------------------------------------|
|------------------------------------------------------||------------------------------------------------------||-17h19-19-19-19--19p17--------------------------------||-----------------------19-19-19---19-19br-17-19--19---||------------------------------------------------------||------------------------------------------------------|
|------------------------------------------------------------||------------------------------------------------------------||------------------------------------------------------------||------------------------------------------------------------||--17-17h19-19br-17\15--15h17-17/19-17---15-17-17/19-19br-17-||------------------------------------------------------------|
|--------------------------------------------------||--------------------------------------------------||-------------------17h19-19-19-19--19p17----------||---17h19-19p17-19------------------------19-19-19-||--------------------------------------------------||--------------------------------------------------|
|------------------------------------------------------------||------------------------------------------------------------||-----------------19br-17-19---19br-17-----------------------||--19-19br-17-19-----------------------17--------------------||------------------------------------------------------------||------------------------------------------------------------|
|-----------------------------------------------||-----------------------------------------------||-----------------------------------------------||---17h19-19br--17-19-19------------------------||--------------------------17-17h19-19br-17\15--||-----------------------------------------------|
|---------------------------------------------------------------||---------------------------------------------------------------||---------------------------------------------------------------||---------------------------------------------------------------||--15h17-17/19-17---15-17-17/19-19br-17-------------------------||---------------------------------------------------------------|
Keep repeating until the singing stops|--------------------------------------------------||--------------------------------------------------||--------------------------------------------------||-12--12--14br-12--14p12--12-----------------------||-12--12-------12--12-----12--15-12--15/17--17\15--||-12--12-------12--12-----12--12-12--12------------|
|------------------------------------------------------------||------------------------------------------------------------||------------------------------------------------------------||---12--12--14br--12--14p12--12------------------------------||---12--12--------12--12-----12--15--12--15--15--------------||---12--12--------12--12-----12--12--12--12--12--------------|
|--------------------------------------------------------||--------------------------------------------------------||--------------------------------------------------------||---17h19-19p17-19--19--------------------17h19-19p17-19-||-----------------------17-17h19-19br-17-----------------||--------------------------------------------------------|
|-------------------------------------------------------||-------------------------------------------------------||--17h19-19-19-19--19p17--------------------------------||------------------------19-19-19---19-19br-17-19--19---||-------------------------------------------------------||-------------------------------------------------------|
|------------------------------------------------------------||------------------------------------------------------------||------------------------------------------------------------||------------------------------------------------------------||--17-17h19-19br-17\15--15h17-17/19-17---15-17-17/19-19br-17-||------------------------------------------------------------|
|--------------------------------------------------||--------------------------------------------------||-------------------17h19-19-19-19--19p17----------||---17h19-19p17-19------------------------19-19-19-||--------------------------------------------------||--------------------------------------------------|
|------------------------------------------------------------||------------------------------------------------------------||-----------------19br-17-19---19br-17-----------------------||--19-19br-17-19-----------------------17--------------------||------------------------------------------------------------||------------------------------------------------------------|
|-----------------------------------------------||-----------------------------------------------||-----------------------------------------------||---17h19-19br--17-19-19------------------------||--------------------------17-17h19-19br-17\15--||-----------------------------------------------|
|---------------------------------------------------------------||---------------------------------------------------------------||---------------------------------------------------------------||---------------------------------17----------------------------||--15h17-17/19--19-17-19-20-20-19-------------------------------||---------------------------------------------------------------|
|---------------------------------------------------------------------------||---------------------------------------------------------------------------||---------------------------------------------------------------------------||17h19-19--17h19-19--17-19-19-19-17-----------19-19p17-19-17-19-19-19-17----||-----------------------------------17--17-17----------------------------17-||---------------------------------------------------------------------------|
|---------------------------------------||---------------------------------------||---------------------------------------||---------19-19p17-19-17-19-191br-17-19-||---17-17-------------------------------||---------------------------------------|
|-----------------------------------------------------||-----------------------------------------------------||-----------------------------------17-17--17-17--19--||-19-17-19/20--20-20--20-20--20-20--------------------||-----------------------------------------------------||-----------------------------------------------------|
|----------------------------------------------||----------------------------------------------||---19-17-19---19-17-19---19-17-19---19-17-19--||----------------------------------------------||----------------------------------------------||----------------------------------------------|
|------------------------------------------------||------------------------------------------------||---19-17-19/21-21-19-21---21-19-21/22-22-21-22--||------------------------------------------------||------------------------------------------------||------------------------------------------------|
|------------------------------------------------||------------------------------------------------||---22-17-19---19-17-19---19-17-19/21--21-19-21--||------------------------------------------------||------------------------------------------------||------------------------------------------------|
|-------------------------------------------------||---------------------------------20-20-18-20-----||-21-19--21/22--22-21-22---22-22------------------||-------------------------------------------------||-------------------------------------------------||-------------------------------------------------|
|-------------------------------------------------------||---20--22--22---20--22--22----20--22b-22--20--22--22---||---19--19--19---19--19--19----19--19--19--19--19--19---||-------------------------------------------------------||-------------------------------------------------------||-------------------------------------------------------|
|-------------------------------------------------------||----20--22--22---20--22--22---20--22b--22--20----------||----19--19--19---19--19--19---19--19---19--19---22--19-||-------------------------------------------------------||-------------------------------------------------------||-------------------------------------------------------|
|-------------------------------------------------------||---20--22--22---20--22--22----20--22b-22--20--22--22---||---19--19--19---19--19--19----19--19--19--19--19--19---||-------------------------------------------------------||-------------------------------------------------------||-------------------------------------------------------|
|------------------------------------------------------||-22--20--20h22--22-22-22-22-22-22---------------------||-19--19--19-----19-19-19-19-19-19---------------------||------------------------------------------------------||------------------------------------------------------||------------------------------------------------------|
|--20--22--22--22--22br--20--||----------------------------||--19--19--19--19--19----19--||----------------------------||----------------------------||----------------------------|
|---------------------------------------------------------------------------||---------------------------------------------------------------------------||---------------------------------------------------------------------------||-0-0--14br-12-14p12-12-10-10h12--12\---0--0--14br--12--14p12--12--10-10-10-||-0-0--14br-12-14p12-12-10-10h12--12\---0--0--14br--12--14p12--12--10-10-10-||-0-0--14br-12-14p12-12-10-10h12--12\---0--0--14br--12--14p12--12--10-10-10-|
Tap to rate this tab
 
# A B C D E F G H I J K L M N O P Q R S T U V W X Y Z