Craigs Brother - Sorry tab

Sorry - Craigs Brother
tabber - shonofear


Tuning: D#

Intro Gtr 1-|----------------------------------------------------------|-|----------------------------------------------------------|-|----------------------------------------------------------|-|-77-77-77-77-777-99-99-99-99-9-7-66-66-66-66-666-777-77-7-|-|-77-77-77-77-777-99-99-99-99-9-7-66-66-66-66-666-777-77-7-|-|-55-55-55-55-555-77-77-77-77-7-5-44-44-44-44-444-555-55-5-|
Gtr 2-|---------------------------------------------------------------------|-|---------------------------------------------------------------------|-|---------------------------------------------------------------------|-|-77-77-77-77-777-99-99-99-99-9-7-66-66-66-66-666-777--9-11--7^7^7^7^-|-|-77-77-77-77-777-99-99-99-99-9-7-66-66-66-66-666---------------------|-|-55-55-55-55-555-77-77-77-77-7-5-44-44-44-44-444-555/-7/-9-----------|
Gtr 1-|------------------------------------------------------------------------|-|------------------------------------------------------------------------|-|------------------111111-9-7-xx-7-9--99-99-99-99-999-----------7^7^-----|-|-77-77-77-77-777-------------------------------------77-77-77--------7^-|-|-77-77-77-77-777---9-9-9-7-5-xx-5/7--77-77-77-77-777-77-77-77------9^---|-|-55-55-55-55-555-------------------------------------55-55-55-----------|
Gtr 2-|---------------------------------------------------------------------------|-|---------------------------------------------------------------------------|-|-------------------------------------99-99-99-99-999-----------------------|-|-77-77-77-77-777-121212-11-9----9-7------------------77-77-77-77--7^7^7^7^-|-|-77-77-77-77-777-------------xx-9-7--77-77-77-77-777-77-77-77-77-----------|-|-55-55-55-55-555-101010--9-7-xx-7\5------------------55-55-55-55-----------|
Verse 1 Gtr 1-|----------------------------------------|-|----------------------------------------|-|-------------1111-77-9------------------|-|-7-----99-99----------12--777----777----|-|-7-12--99-----9-9-55-7----777-xx-777----|-|-5-----77-77--------------555-xx-555-x\-|
Gtr 2-|-----------------------------------------|-|-----------------------------------------|-|----------1111---------------------------|-|-7-----99-1111-99-77-6-----777----777----|-|-7-12--99--9-9-99-77-6-12--777-xx-777----|-|-5-----77------77-55-4-----555-xx-555-x\-|
Gtr 1-|------------------------------|-|------------------------------|-|-------------1111-77-9--------|-|-7-----99-99----------12--7---|-|-7-12--99-----9-9-55-7----7-6-|-|-5-----77-77--------------5---|
Gtr 2-|---------------------------------|-|---------------------------------|-|----------77-1414-1111-13--------|-|-7-----99----------------12--7---|-|-7-12--99-55-1212--9-9-11----7-6-|-|-5-----77--------------------5---|
Pre Chorus Gtr 1-|--------------------------------------|-|--------------------------------------|-|-----------------99-77-66-44-9--------|-|-xxxx-6-7-6-4-----------------12--7---|-|-xxxx-6-7-6-4-12-77-55-44-22/7----7-6-|-|-xxxx-4-5-4-2---------------------5---|
Gtr 2-|-------------------------------------|-|-------------------------------------|-|-------------------------------------|-|-xxxx-6-7-6-4----9----7-9-7-6----7---|-|-xxxx-6-7-6-4-12-9-10-7-9-7-6-12-7-6-|-|-xxxx-4-5-4-2----7----5-7-5-4----5---|
Gtr 1-|----------------------------------------|-|----------------------------------------|-|-----------------44-1111-99-77-9--------|-|-xxxx-6-7-6-4-------------------12--7---|-|-xxxx-6-7-6-4-8--22--9-9-77-55-7----7-8-|-|-xxxx-4-5-4-2-----------------------5---|
Gtr 2-|-----------------------------------------------|-|-----------------------------------------------|-|------------------66-1111-99-77-66-44-9--------|-|-xxxx-6-7-6-44-44----------------------12--7---|-|-xxxx-6-7-6-44----44--9-9-77-55-44-22-7----7-8-|-|-xxxx-4-5-4-22-22--------------------------5---|
Chorus Both Gtrís-|--------------------|--------------------------|-|--------------------|--------------------------|-|-----------------99-|--------------------------|-|-3----5----7-----99-|-3----5-------------------|-|-3-6--5-6--7-10--77-|-3-6--5-6--77-777-777-----|-|-1----3----5--------|-1----3----55-555-555--x\-| ** *** ***
-|--------------------|-------------|-|--------------------|-------------|-|-----------------99-|-------------|-|-3----5----7-----99-|-3----5------|-|-3-6--5-6--7-10--77-|-3-6--5-6----|-|-1----3----5--------|-1----3---x\-|
Verse 2 (Same verse 1, without pickslide)
Pre Chorus 2 Gtr 1-|--------------------------------------------------------|-|--------------------------------------------------------|-|--------------------------99-77-66-44--99-99-99-99------|-|-xxxx-6-7-6--44-44-44-44----------------------------7---|-|-xxxx-6-7-6--44-44-44-44--77-55-44-22--77-77-77-77--7-6-|-|-xxxx-4-5-4--22-22-22-22----------------------------5---|
Gtr 2-|--------------------------------------------------------|-|--------------------------------------------------------|-|--------------------------------------------------------|-|-xxxx-6-7-6--44-44-44-44--9-----7-9-7--66-66-66-66--7---|-|-xxxx-6-7-6--44-44-44-44--9-10--7-9-7--66-66-66-66--7-6-|-|-xxxx-4-5-4--22-22-22-22--7-----5-7-5--44-44-44-44--5---|
Gtr 1-|---------------------------------------------------------------|-|---------------------------------------------------------------|-|--------------------------44-1111-99-77-99-1111-1313-14-16-14--|-|-xxxx-6-7-6--44-44-44-44-------------------------------------8-|-|-xxxx-6-7-6--44-44-44-44--22--9-9-77-55/77--9-9-1111-12-14-12--|-|-xxxx-4-5-4--22-22-22-22---------------------------------------|
Gtr 2-|-----------------------------------------------|-|-----------------------------------------------|-|--------------------------99-77-66-44-9--------|-|-xxxx-6-7-6--44-44-44-44---------------12--7---|-|-xxxx-6-7-6--44-44-44-44--77-55-44-22-7----7-8-|-|-xxxx-4-5-4--22-22-22-22-------------------5---|
Chorus
Bridge 1 Gtr 1-|-----------------------|-----------------------|-----------------------|-|-----------------------|-----------------------|-----------------------|-|-666-------------------|-777-444------------44-|-777-444------------77-|-|-***-777------------77-|-***-***-44-----444-**-|-***-***-66-----666-**-|-|-----***-77-444-777-**-|---------**-555-***----|---------**-777-***----|-|---------**-***-***----|------------***--------|------------***--------|
-|----------------------|-|----------------------|-|-666------------------|-|-***-777-----77-777-7-|-|-----***-77--77-777-7-|-|---------**--55-555-5-|
Gtr 2-|-----|---|-----------------------------------|--------------------------|-|-----|---|-----------------------------------|--------------------------|-|-----|---|-111111-----------------------1111-|-999----------------------|-|-7---|-9-|--*-*-*-121212-999--------999--*-*-|-***-111111-999--77-777-7-|-|-7-r-|-9-|---------*-*-*-***-111111-***------|------*-*-*-***--77-777-7-|-|-5---|-7-|--------------------*-*-*----------|-----------------55-555-5-|
Intro Gtr 1-|----------------------------------------------------------|-|----------------------------------------------------------|-|----------------------------------------------------------|-|-77-77-77-77-777-99-99-99-99-9-7-66-66-66-66-666-777-77-7-|-|-77-77-77-77-777-99-99-99-99-9-7-66-66-66-66-666-777-77-7-|-|-55-55-55-55-555-77-77-77-77-7-5-44-44-44-44-444-555-55-5-|
Gtr 2-|---------------------------------------------------------------------|-|---------------------------------------------------------------------|-|---------------------------------------------------------------------|-|-77-77-77-77-777-99-99-99-99-9-7-66-66-66-66-666-777--9-11--7^7^7^7^-|-|-77-77-77-77-777-99-99-99-99-9-7-66-66-66-66-666---------------------|-|-55-55-55-55-555-77-77-77-77-7-5-44-44-44-44-444-555/-7/-9-----------|
Gtr 1-|--------------------------------------------------------------|-|--------------------------------------------------------------|-|------------------111111-9-7-xx-7-9--99-99-99-99-999----------|-|-77-77-77-77-777-------------------------------------77-77-77-|-|-77-77-77-77-777---9-9-9-7-5-xx-5/7--77-77-77-77-777-77-77-77-|-|-55-55-55-55-555-------------------------------------55-55-55-|
Gtr 2-|-----------------------------------------------------------------|-|-----------------------------------------------------------------|-|-------------------------------------99-99-99-99-999-------------|-|-77-77-77-77-777-121212-11-9----9-7------------------77-77-77-77-|-|-77-77-77-77-777-------------xx-9-7--77-77-77-77-777-77-77-77-77-|-|-55-55-55-55-555-101010--9-7-xx-7\5------------------55-55-55-55-|
Bridge 2 Gtr 1-|---------|---------------------------------------|-|---------|---------------------------------------|-|-7--14---|-11---14-1313-9----1414-1818-1616-1414-|-|------12-|---8------------8----------------------|-|-5//12---|--9---12-1111-7----1212-1616-1414-1212-|-|---------|---------------------------------------|
Gtr 2-|--------------------------------------------------|-|--------------------------------------------------|-|-6666-77-66-7777-99-77-99-1313-1111-99-6666-99-77-|-|--------------------------------------------------|-|-4444-55-44-5555-77-55-77-1111--9-9-77-4444-77-55-|-|--------------------------------------------------|
Gtr 1-|------------------------------------------------|-|------------------------------------------------|-|-14----11---14-1313-9----1414-1818-1616--xxx-14-|-|---12----8------------8-------------------------|-|-12-----9---12-1111-7----1212-1616-1414--xxx-12-|-|------------------------------------------------|
Gtr 2-|----------------------------------------------------------|-|----------------------------------------------------------|-|-6666-77-66-7777-99-77-99-1313-1111-99--------------------|-|----------------------------------------------------7---7-|-|-4444-55-44-5555-77-55-77-1111--9-9-77-77-77-77-777-7-7-7-|-|---------------------------------------55-55-55-555-5-5-5-|
** ** ** *** *Outro Gtr 1-|---------------------------------------------------|-|---------------------------------------------------|-|-14---1616-18---1919-1818-13---1414-16---1818-1616-|-|---6---------8--------------6---------8------------|-|-12---1414-16---1717-1616-11---1212-14---1616-1414-|-|---------------------------------------------------|
-|--------------------------------------------------|-|--------------------------------------------------|-|-14---1616-18---1919-1818-17171717-19191919-18----|-|---6---------8--------------------------------r---|-|-12---1414-16---1717-1616-15151515-17171717-16--\-|-|------------------------------------------------\-|
Gtr 2-|-----------------------------|------------------------------|-|-----------------------------|------------------------------|-|-----------------------------|-------------10---------------|-|-7-----9-----7-6-----7-------|-7-----9-----10-4--5----7-----|-|-7-12--9-10--7-6-12--7-10----|-7-12--9-12---8----5-4--7-r-\-|-|-5-----7----\5-4-----5----x\-|-5-----7-----------3----5---\-|
Tap to rate this tab
 
# A B C D E F G H I J K L M N O P Q R S T U V W X Y Z