Cream - Crossroads tab

                     Crossroads (Solo) (Robert Johnson)
                                 Cream
                            Wheel's Of Fire

p=pulloff
h=hammeron
m=palm mute
x=muted note
~=bend back and forth
b=bend
/=slide up
\=slide down

1st Solo (01:27):|------------------------------------------------5---5---5---------||----------------------------------------2---5h7---7-5-7-5-5---5---||-----2-2----2----2----4b6-------2---2h4-------------------7-5h6---||-2h4-----4-----4----4-------2h4---4-----------------------------7-||------------------------------------------------------------------||------------------------------------------------------------------|
|-----------------------5-----------------------------------||-------------------------8-5------------------5-8----------||---------5--7p5----7b9-------5h7--5h7p5---5-7-----5--------||-----5-7--------7-----------------------7------------7p5-7-||-5-7-------------------------------------------------------||-----------------------------------------------------------|
|--------------8-10------------8-------8----------------------------------||-------10-10-------10---8h10----8h10---------------------5---------------||-----9-----------------------------------9\7--5--7p5---6---7-6-----------||-/11-------------------------------------------------7---------7---------||-----------------------------------------------------------------7-5-----||---------------------------------------------------------------------7-5-|
|-----5--------------------------||---5---8p5---5------------------||-6---------7---7p5----------6---||-------------------7--7p5-5-----||------------------------------7-||--------------------------------|
|-9---------8--10-10b12-8-------8-------------------------------------8-||----10-------------------10-10---------8-8-8----------------8-8-8-10---||-----------------------------------7h9-------7-5--------7h9------------||-------------------------------------------------7p5-7-----------------||-----------------------------------------------------------------------||-----------------------------------------------------------------------|
|------------------------------------------------------------||---15b17-15b17-15b17-15b17-13-15-----13---17-b-15-----------||---------------------------------14----------------14p12-14-||------------------------------------------------------------||------------------------------------------------------------||------------------------------------------------------------|
|-------------------------------------------------------------------------||-----8-8-8---------------5------5-5---5-5-5-7p5---5------5---5-7b9-7b9-5-||-7h9-------7-5-7p5---5-7----5h7-----7-----------7----5h7---7-------------||-------------------7-----------------------------------------------------||-------------------------------------------------------------------------||-------------------------------------------------------------------------|
|-----------------||-----------------||-----0h2-2p0-----||-0h2---------2-0-||-----------------||-----------------|
____________________________________________________________________________________ ____________________________________________________________________________________ ____________________________________________________________________________________
2nd Guitar Solo (02:32):|-----------------------------------------15----15----------15----15----||-/15--17-17-17-17--/17--17-17-17-17--/17----17----17---/17----17----17-||-----------------------------------------------------------------------||-----------------------------------------------------------------------||-----------------------------------------------------------------------||-----------------------------------------------------------------------|
|-15b17---17-15-12-------------------12-17-15p12-----------||------------------15-13-15----13-15-------------15-13-----||---------------------------14--------------------------14-||----------------------------------------------------------||----------------------------------------------------------||----------------------------------------------------------|
|-20b22-20-17h20p17----17------------17----------------------------------||-------------------19-----19-20b22-----20----------------------17-------||------------------------------------------19b21-17-19----17-19----19-17-||------------------------------------------------------19----------------||------------------------------------------------------------------------||------------------------------------------------------------------------|
|----------------------------------||----------------------------------||-17-----17-17--17-17-------17-17--||-----19-17h19--19----19-17--------||----------------------------------||----------------------------------|
|---------------------------------------------------||---------------------------------------------------||-17-17-----17----17-17-17----17----17-----------17-||-17h19--19----19----17h19-19----19----17-17--17----||--------------------------------------17h19--19----||---------------------------------------------------|
|---------------------------------------||------------------------------17----17-||----17-x-17-19-17b18----------19b21----||-17h19-x-19----------19p17h19----------||---------------------------------------||---------------------------------------|
|------------------------------------15-----------------------||-/17--17-17-17-17--/15--17-17-17-17----17-15h17-13h15-13-----||----------------------------------------------------------14-||-------------------------------------------------------------||-------------------------------------------------------------||-------------------------------------------------------------|
|-15b17----------------------------12-15-17-17--17-15-15b17-17-||-------13-15-13----------13-13--------------------------------||----------------14p12----12-12--------------------------------||----------------------14-------14-----------------------------||--------------------------------------------------------------||--------------------------------------------------------------|
|-17-15-17p15----20b22-20--17----17-17---17-------------------------||-------------17--------------20------------20-17-20----------------||----------------------------------------------------19b21-17-19----||----------------------------------------------------------------19-||-------------------------------------------------------------------||-------------------------------------------------------------------|
|----------------------------------------------------||-17b19b17-15-17-15-------------17-19----------------||-------------------17h19p17----17-19-------17-19----||----------------------------19-------19-19-------19-||----------------------------------------------------||----------------------------------------------------|
|-----------------------------------------------||-----17-----17-----17--------------------------||-19-----18-----18--------------------17--17----||----------------------19b17----17-19--------19-||----------------------------19-----------------||-----------------------------------------------|
|-15p12----15p12----15p12----15p12----15b17-17-15-12-15p12----12-------------------||-------15-------15-------15-------15----------------------15----15-13-15p13----13-||----------------------------------------------------------------------------14----||----------------------------------------------------------------------------------||----------------------------------------------------------------------------------||----------------------------------------------------------------------------------|
|-----------------------------------------------||-13--13--13--13--13-13-13-13-13-13-13-13-13-13-||-12--14--12--14--12-14-12-14-12-14-12-14-12-14-||-----------------------------------------------||-----------------------------------------------||-----------------------------------------------|
|-------------------------------------------------------------------||-17--17--17--17--17--17--17--17-17-17-17---20---20---20---20-------||-17--19--17--19--17--19--17--19-17-19-17-19---19---19---19---19-17-||-------------------------------------------------------------------||-------------------------------------------------------------------||-------------------------------------------------------------------|
|----------------------------------------------------||---------------------------20p17-----20p17----20b22-||-17-----17-17-17-----17-17-------19--------19-------||-17h19--------17h19---------------------------------||----------------------------------------------------||----------------------------------------------------|
|-17-------------17-------------17--||----20-17-20b22----20-17-20b22-----||-----------------------------------||-----------------------------------||-----------------------------------||-----------------------------------|
|-------------17-----------------------------------------||-20-17-20b22----20-17-----------------------------------||-----------------------------19b21b19--17-----19--17b18-||------------------------------------------19-(19)-------||--------------------------------------------------------||--------------------------------------------------------|
|-------------------17-------------------------||----------------17----20p17----17-------------||----------17h18-------------19----17h19p17b18-||-19p17-19-------------------------------------||----------------------------------------------||----------------------------------------------|
|----19b21---19b21b19-17-19------17-----17-17-17-17----19b21--||---------------------------19-------19-------------18--------||-------------------------------------------------------------||-19----------------------------------------------------------||-------------------------------------------------------------||-------------------------------------------------------------|
|----20b22--20-17h20p17----17-17-||-17--------------------20-------||--------------------------------||--------------------------------||--------------------------------||--------------------------------|
|--------17------------------------------------||-20b22-----20-17------------------------17----||-----------------19b21b19-17-19p17----18------||------------------------------------19--------||-------------------------------------------19-||----------------------------------------------|
Tap to rate this tab
 
# A B C D E F G H I J K L M N O P Q R S T U V W X Y Z