Crooked X - Nightmare tab

this is my first time writing a tab
i added a different way to play the intro for people with small hands (like me) :)
i just got a little part of the solo
please comment :)

palm mute= .
hold the note= ()
slide= /


intro:

|-12----10-(10)-|-10-12---------|-12----10-(10)-|----12---------||-12-12-10-(10)-|-10-12-12-(12)-|-12-12-10-(10)-|-10-12-12-(12)-||----12---------|-------12-(12)-|----12---------|-9-----12-(12)-||---------------|---------------|---------------|---------------||---------------|---------------|---------------|---------------|
play 3x:
|-12-------------------------------------------------------------------------||-------12-----13-----10-----12----------------------------------------------||---9-9----9-9----9-9----9-9----9-12-9-14-9-9-11-9-9-12-9-9-14-9-9-12-9-11-9-||----------------------------------------------------------------------------||----------------------------------------------------------------------------||----------------------------------------------------------------------------|
i play this 3x instead of the above one because my hands are too small. :P
|-------------------------------------------------------------------------------------------------||-------------------------------------------------------------------------------------------------||-16----------------------------------------------------------------------------------------------||----------16-------17-------14-------16----------------------------------------------------------||----14-14----14-14----14-14----14-14----14-17-14-19-14-14-16-14-14-17-14-14-19-14-14-17-14-16-14-||-------------------------------------------------------------------------------------------------|
you can also play it this way but i think the first way sounds the best:
|------------------------------------------------------------------||-12-0-0-7-0-0-8-0-0-5-0-0-7-0-3-0-5-0-0-2-0-0-3-0-0-5-0-0-3-0-2-0-||------------------------------------------------------------------||------------------------------------------------------------------||------------------------------------------------------------------||------------------------------------------------------------------|
play 2x:
|-----------|-----------|--------------------||-----------|-----------|--------------------||-----------|-----------|--------------------||-----------|-----------|--------------------||-2-0-0-5-7-|-2-0-0-7-5-|-2-0-0-5-7--9-7-5-4-||-0-0-0-3-5-|-0-0-0-5-3-|-0-0-0-3-5--7-5-3-2-| . . .
play 3x
|-----------------------------------------------------------------||-----------------------------------------------------------------||-----------------------------------------------------------------||-----------------------------------------------------------------||---------5---------------5---------------5-----------------------||-000-0-0-3-0-0-0-000-0-0-3-0-0-0-000-0-0-3-0-0-0-777-555-333-222-| ... . . . . . ... . . . . . ... . . . . . ... ... ... ...
play this after your done playing the above one 3x
|-----------------------------------|-----------------||-----------------------------------|-----------------||-----------------------------------|-----------------||-----------------------------------|-----------------||---------5---------------5-2-2-2-2-|-2-2-2-2-2-2-2-2-||-000-0-0-3-0-0-0-000-0-0-3-0-0-0-0-|-0-0-0-0-0-0-0-0-| ... . . . . . ... . . . . . . . . . . . . .
play 2x:
|-----------|-----------|--------------------||-----------|-----------|--------------------||-----------|-----------|--------------------||-----------|-----------|--------------------||-2-0-0-5-7-|-2-0-0-7-5-|-2-0-0-5-7--9-7-5-4-||-0-0-0-3-5-|-0-0-0-5-3-|-0-0-0-3-5--7-5-3-2-| . . .
|-----------------------------------------------------||-----------------------------------------------------||-----------------------------------------------------||-4-(4)--7-(7)----------------4-(4)--7-(7)------------||-2-(2)--5-(5)--5-(5)--7-(7)--2-(2)--5-(5)--5-(5)--7--||---------------3-(3)--5-(5)----------------3-(3)--5--|
play 2x:
|-----------|-----------|--------------------||-----------|-----------|--------------------||-----------|-----------|--------------------||-----------|-----------|--------------------||-2-0-0-5-7-|-2-0-0-7-5-|-2-0-0-5-7--9-7-5-4-||-0-0-0-3-5-|-0-0-0-5-3-|-0-0-0-3-5--7-5-3-2-| . . .
play 3x:
|-----------------------------------------------------------------||-----------------------------------------------------------------||-----------------------------------------------------------------||-----------------------------------------------------------------||---------5---------------5---------------5-----------------------||-000-0-0-3-0-0-0-000-0-0-3-0-0-0-000-0-0-3-0-0-0-777-555-333-222-| ... . . . . . ... . . . . . ... . . . . . ... ... ... ...
play this after your done playing the above one 3x
|-----------------------------------|-----------------||-----------------------------------|-----------------||-----------------------------------|-----------------||-----------------------------------|-----------------||---------5---------------5-2-2-2-2-|-2-2-2-2-2-2-2-2-||-000-0-0-3-0-0-0-000-0-0-3-0-0-0-0-|-0-0-0-0-0-0-0-0-| ... . . . . . ... . . . . . . . . . . . . .
play 2x:
|-----------|-----------|--------------------||-----------|-----------|--------------------||-----------|-----------|--------------------||-----------|-----------|--------------------||-2-0-0-5-7-|-2-0-0-7-5-|-2-0-0-5-7--9-7-5-4-||-0-0-0-3-5-|-0-0-0-5-3-|-0-0-0-3-5--7-5-3-2-| . . .
|-----------------------------------------------------||-----------------------------------------------------||-----------------------------------------------------||-4-(4)--7-(7)----------------4-(4)--7-(7)------------||-2-(2)--5-(5)--5-(5)--7-(7)--2-(2)--5-(5)--5-(5)--7--||---------------3-(3)--5-(5)----------------3-(3)--5--|
solo (this is the part near the end..i dont know the rest, but hey, its something):
|-------------------------------------------------------------------------------||-------------------------------------------------------------------------------||------------10-9----------------10-9----------------10-9-------------10-9------||-11-11-9-11------10--11-11-9-11------10--11-11-9-11------10--11-9-11------9/11-||-------------------------------------------------------------------------------||-------------------------------------------------------------------------------|
play 5x:
|-----------|-----------|--------------------||-----------|-----------|--------------------||-----------|-----------|--------------------||-----------|-----------|--------------------||-2-0-0-5-7-|-2-0-0-7-5-|-2-0-0-5-7--9-7-5-4-||-0-0-0-3-5-|-0-0-0-5-3-|-0-0-0-3-5--7-5-3-2-| . . .
end:
|-------------------||-------------------||-------------------||-------------------||-2---2---2---2---2-||-0---0---0---0---0-|
Tap to rate this tab
 
# A B C D E F G H I J K L M N O P Q R S T U V W X Y Z