Cure - Pictures Of You tab

Artist: The Cure
Song: Pictures Of You
Album: Disintegration

Tuning: E(standard)

Bass Intro (continues through guitar intro)---------------------------------------------------------|---------------------------------------------------------|---------------------------------------4-4--------4--4-4-|-0--0-0-5--5--0--0-0--5--5-5---2--2-2------2--2-2--------|
Guitar 1 (clean w/doubler & reverb)Fig.1-----------------------------------------------------------|-----------------------------------------------------------|-----------------------------------------------------------|-2--2-2-2--2-2--2-2--7-7-7-7--4--4-4--4--4-4--4-4--4-4-4-4-|-----------------------------------------------------------|-----------------------------------------------------------| x2
-----------------------------|-----------------------------|-----------------------------|-/2--2-2--0-0--0-------------|-----------------4---2/4--5--|-----------------------------| x2
Gtr.2 (clean w/delay & reverb)Fig.2 (w/fig.1; on second repeat)---------------------------------------------------|---------------------------------------------------|-9--9-9-9--9-9--9-9--9-9-9-9---7--7-7-7--7-7--7-7--|---------------------------------------------------|---------------------------------------------------|---------------------------------------------------|
---------------------------------------------------|---------------------------------------------------|-7-7-7-7--6--6-6-6--6-6--6-6--7-7-7-7---2--2-2-2---|---------------------------------------------------|---------------------------------------------------|---------------------------------------------------|
---------------------------------------------------|---------------------------------------------------|-2-2--2-2--2/4-4-4-4/6--6-6-6--6-6--6-6--6-6-6-6---|---------------------------------------------------|---------------------------------------------------|---------------------------------------------------|
---------------------------------------------------|---------------------------------------------------|-7--7-7-7--7-7--7-7--7-7-7/9--9-9--7-7-6-6--6-6----|---------------------------------------------------|---------------------------------------------------|---------------------------------------------------|
---------------------------------------------------|---------------------------------------------------|-4/6--\2--2-2-2--2-2--2-2--2-2-2-2-----------------|---------------------------------------------------|---------------------------------------------------|---------------------------------------------------|
Gtr.1 on 4th repeat..---------------------------------------------------|---------------------------------------------------|-9-9-9-9-9--9-9--9-9--9-9-9-9---7--7-7-7--7-7--7-7-|---------------------------------------------------|---------------------------------------------------|---------------------------------------------------|
---------------------------------------------------|---------------------------------------------------|-7-7-7-7--6--6-6-6--6-6--6-6-6--6-6-6-6------------|---------------------------------------------------|---------------------------------------------------|---------------------------------------------------|
---------------------------------------------------|---------------------------------------------------|-2--2-2-2--2-2--2-2--2-2-2/4-4-4--4/6--6-6-6--6-6--|---------------------------------------------------|---------------------------------------------------|---------------------------------------------------|
---------------------------------------------------|---------------------------------------------------|-6-6--6-6-6-6--7--7-7-7--7-7--7-7--7-7-7-7---------|---------------------------------------------------|---------------------------------------------------|---------------------------------------------------|
---------------------------------------------------|---------------------------------------------------|-/9-9-9-9-9-9--7--7-6--6-6-4-6--2--2-2-2--2-2--2-2-|---------------------------------------------------|---------------------------------------------------|---------------------------------------------------|
---------|---------|-2-2-2-2-|---------|---------|---------|
Tap to rate this tab
 
# A B C D E F G H I J K L M N O P Q R S T U V W X Y Z