Damn Yankees - Where You Going Now tab

WHERE YOU GOIN NOW
Damn Yankees
Transcribed by jibesh@hotmail.com
Words and Music by tommy shaw,jack blades,ted nugent
Dedicated to BENU, I LOVE YOU		
 
Intro
  
4/4 Gtr I|---------------0-------------|-------3---------------------||-------1-----------3---1-----|---------0-------------------||-----2---2-----------------0-|-----0-----------------0-----||---2-------2-----2-------2---|---0-----------0---0-------0-||-0-----------0-------0-------|-----------2-3-------2-------||-----------------------------|-3---------------3-------3---|
|---------------0---------0------||-------3-----3---3-----------3--||-----2---2-----------2----------||---0----------------------------||-----------------------0--------||-2---------2-------2-------2----|
|---------------0-----------------------------||-------3---------3---------------------------||---------------------------------------0-----||---3-------3-----------------------0---------||-----0---0---0------------------2------------||-1-----------------3-------------------------|
|
| Gtr III|---------------------------------------------||-----------------------15b17==(15)r==(15)p13-||---------------------x-----------------------||-----------------x---------------------------||---------------------------------------------||---------------------------------------------|
|----------------0---------------|----------3---------------------||----1---1---------1---3---1-----|------------0-------------------||----------2-----------4-------0-|--------0-----------------0-----||------2-----2-------2---2---2---|------0-----------0-----------0-||--0-----------0-----------------|--------------2h3-----2-2---0---||--------------------------------|---3----------------3-----------|
|
| ~~~~~~~~~~~~~~~~~~~~~~~~~~~~~~~~~~~~~|--------------------------------|--------------------------------||--------------------------------|--------------------------------||-14-----------------------------|-(14)---------------------------||--------------------------------|--------------------------------||--------------------------------|--------------------------------||--------------------------------|--------------------------------|
|--------------0---0---------0---^1-||----------3---3-3---3---------3-^3-||------------2---------2-(2)-----^2-||---0----0-----------------------^0-||---0--0----------------------------||-----------------------------------|
|
| ~~~~|-----------------------------------||-----------------------------------||-(14)------------------------------||-----------------------------------||-----------------------------------||-----------------------------------|
|----(1)--------------1---------0------------------|||----(3)----3-------3----3---------3-0-------------|||----(2)------2-------------2--------0-----------0-|||----(0)---------------------------------------0---|||--------------------------------------------2-----|||----------------------------------------3---------||
|
| ~~~~~~~~~~~~~~~~~|--------17----------------------------------------|||-15s17---------17s15---13-------------------------|||--------------------------14-(14)-----(14)\-------|||--------------------------------------------------|||--------------------------------------------------|||--------------------------------------------------||
Verse 1|---------------0---------------|---------3---------------------||-------1---------1---3---1-----|-------------------------0-----||-----2---2---------2---------0-|-----0-----0-----------------0-||---2---------2-------------2---|-------0---------0---0-0---0---||-0---------0-----------0-------|---2---------2h3---------------||-------------------------------|-3-----------------3-----------|
|---------------0-----------0-----|-----------1---0-----------------||---------3-------3-----------3---|-------3-------------------------||-------2-----------------------2-|---------2---2---2---0-------0---||---0-------0-------0-0-(0)-------|---3---------------3-------0-----||-----0-------0-------------------|-----0-------------------2-------||-2-------------------------------|-1---------------------3---------|
|-----------0---0---------------|---------3---------------------||-------1-----1---1---3---1-----|-------------------------------||-----2---2-------------------0-|-----0-----0-------------0-----||---2---------------2---2---2---|-------0---------0---0-------0-||-0-----------------------------|---2---------2h3-------2---2---||-------------------------------|-3-----------------3-----------|
|-----------0---0---------0---^1-|-(1)-------0---1----------------||---------3---3---3---3-----3-^3-|-(3)---3-----3---3--------------||-------2-----------2---2-----^2-|-(2)-----2---------0-------0----||-0-0-------------------------^0-|-(0)-0-------------------0------||-----0-------------0------------|-----------------------2--------||-2------------------------------|---------------------3----------|
Pre-Chorus 1|-0-0-0-0-0--0--0-----0---|-0-0-0-0--0--0--0--0-||-1-1-1-1-1--1--1-3-3-3---|-1-1-1-1--1--1--1--1-||-0-0-0-0-0--0--0-0-0-0---|-2-2-2-2--2--2--2--2-||-2-2-2-2----2--2-0-0-----|-2-2-2-2--2--2--2--2-||-3-3-3-3----3--3-2-2-----|-0-0-0-0--0--0--0--0-||-------------------------|---------------------|
|
| Gtr IV|-------------------------|---------------------||-------------------------|---------------------||-5---------(5)---4h==5p4-|-2-------(2)---------||-5---------(5)-----------|-2-------(2)---------||-3---------(3)---2h==3p2-|-0-------(0)---12\---||-------------------------|---------------------|
|-0-0-0-0-0-0-0-0-0-0-|-3-3-3-3-3-3-3-3--||-0-0-0-0-0-0-0-0-0-0-|-0-0-0-0-0-0-0-0--||-0-0-0-0-0-0-0-0-0-0-|-0-0-0-0-0-0-0-0--||-2-2-2-2-2-2-2---2---|-0-0-0-0-0-0-0-0--||-2-2-2-2-2-2-2---2---|-2---2---2---2----||-0-0-0-0-0-0-0---0---|-3---3---3---3----|
|
|---------------------|-3-------3-3-3-3--||---------------------|-3-------3-3-3-3--||---------------------|-0-------0-0-0-0--||-2-----------------0-|-0-------0-0-0-0--||-2-----2-2-2-2-2-2---|------------------||-0-----0-0-0-0-0-0---|-3-------3-3-3-3--|
Chorus 1|-0--0----------|-0--0----0---0---0--0---0-||-1--1---1--1-0-|-0--0----0---0---0--0---0-||-0--0-0-2--2-0-|-0--0----0---0---0--0---0-||-2--2-0-2--2-0-|-2--2--------2------2-----||-3--3-2-0--0---|-2--2--------2------2-----||---------------|-0--0--------0------0-----|
|
| ~~~~~~~|---------------|--------------------------||---------------|--------------------------||-5--5---2--2---|-------------7s9-9-(9)\---||-5--5-5-2--2---|---------7-9-7s9-9-(9)\---||-3--3-2-0--0---|----7-10------------------||-------------3-|-0------------------------|
|-1-1-1-0-(0)-0-0-0-0-0-|-1-1-1-0-(0)-0-0-3-3-3-3--||-1-1-1-1-(1)-1-1-1-1-1-|-1-1-1-1-(1)-1-1-0-0-0-0--||-2-2-2-0-(0)-0-0-0-0-0-|-2-2-2-0-(0)-0-0-0-0-0-0--||-3---3-2-(2)-2---2-2---|-3---3-2-(2)-2---0---0----||-3---3-------3---3-3---|-3---3-------3---2---2----||-1---1-----------------|-1---1-----------3---3----|
|
|-1-1-1-----------------|-1-1-1-0-(0)--------------||-1-1-1-----------------|-1-1-1-1-(1)-1---0--------||-2-2-2-5--5------------|-2-2-2-0-(0)-0---0--------||-3-3-3-5--5------5-----|-3-3-3-2-(2)-0h2-0--------||-3-3-3-3--3--5-7-3-7-5-|-3-3-3-3-(3)--------------||-1-1-1-------3-5---5-3-|-1-1-1-----------3--------|
|-0--0----------|-0--0----0---0---0--0---0-||-1--1---1--1-0-|-0--0----0---0---0--0---0-||-0--0-0-2--2-0-|-0--0----0---0---0--0---0-||-2--2-0-2--2-0-|-2--2--------2------2-----||-3--3-2-0--0---|-2--2--------2------2-----||---------------|-0--0--------0------0-----|
|
| ~~~~~~~|---------------|--------------------------||---------------|--------------------------||-5--5---2--2---|-------------7s9-9-(9)\---||-5--5-5-2--2---|---------7-9-7s9-9-(9)\---||-3--3-2-0--0---|----7-10------------------||-------------3-|-0------------------------|
|-1-1-1-0-(0)-0-0-0-0-0-|-1-1-1-0-(0)--------------||-1-1-1-1-(1)-1-1-1-1-1-|-1-1-1-1-(1)--------------||-2-2-2-0-(0)-0-0-0-0-0-|-2-2-2-0-(0)-----------0--||-3---3-2-(2)-2---2-2---|-3---3-2-(2)-------0-2----||-3---3-------3---3-3---|-3---3---------0-3--------||-1---1-----------------|-1---1-------3------------|
|
|-1-1-1-----------------|--------------------------||-1-1-1-----------------|-----------------------8--||-2-2-2-5--5------------|-2-----5-(5)-----5-7s9----||-3-3-3-5--5------5-----|-3-5-5-5-(5)-5-7-------5--||-3-3-3-3--3--5-7-3-7-5-|-3-3-3-3-(3)-----3-5s7----||-1-1-1-------3-5---5-3-|-1-1-1-------3-5----------|
Verse 2|----------------0---------------|------------3-----------------------||--------1---------1---3---1-----|------------------------------0-----||------2---2---------2---------0-|--------0-----0-------------------0-||----2---------2-------------2---|----------0---------0---0--0----0---||--0---------0-----------0-------|------2---------2h3-----------------||--------------------------------|---3------------------3-------------|
|
| ~~~~~~~~~~~~~~~~~~~~~~~~~~~~~~~~~~~~~ PM--------|--------------------------------|------------------------------------||--------------------------------|------------------------------------||--------------------------------|------------------------------------||--7-----------------------------|------------------------------------||--------------------------------|------------------------------------||--------------------------------|---3----------------3-3---(3)---0-3-|
|
| Gtr IV| ~~~~~~~~~~~~~~~~~~~~~~~~~~~~~~~~~~~~~|--------------------------------|------------------------------------||-10-----------------------------|-(10)-------------------------------||--------------------------------|------------------------------------||--------------------------------|------------------------------------||--------------------------------|------------------------------------||--------------------------------|------------------------------------|
|---------------0-----------0-----|-----------1---0-----------------||---------3-------3-----------3---|-------3-------------------------||-------2-----------------------2-|---------2---2---2---0-------0---||---0-------0-------0-0-(0)-------|---3---------------3-------0-----||-----0-------0-------------------|-----0-------------------2-------||-2-------------------------------|-1---------------------3---------|
|
|---------------------------------------------------------------||---------------------------------|---------------------------------||---------------------------------|---------------------------------||---------------------------------|---------------------------------||---------------------------------|-----------------------------5---||---------------------------------|---------------------------7-----||-2----------------------2----5-3-|-1-------------1-------3---0-3---|
|
|---------------------------------|---------------------------------||---------------------------------|---------------------------------||---------------------------------|---------------------------------||---------------------------------|---------------------------------||---------------------------------|---------------------------------||---------------------------------|---------------------------------|
|-----------0----0----------------|---------3-----------------------||-------1-----1-----1---3---1-----|---------------------------------||-----2---2---------------------0-|-----0-----0---------------0-----||---2-----------------2---2---2---|-------0----------0----0-------0-||-0-------------------------------|---2---------2h3---------2---2---||---------------------------------|-3-------------------3-----------|
|
| PM--------| PM||---------------------------------|---------------------------3-3-3-||---------------------------------|---------------------------3-3-3-||---------------------------------|---------------------------0-0-0-||-7-------------(7)---------------|-----------------------------0---||-0-------------(0)---0---0---0---|---------------------------------||-------------------------------3-|-3---------------(3)-3-3-3-------|
|-----------0---0---------0---^1-|-(1)-------0---1----------------||---------3---3---3---3-----3-^3-|-(3)---3-----3---3--------------||-------2-----------2---2-----^2-|-(2)-----2---------0-------0----||-0-0-------------------------^0-|-(0)-0-------------------0------||-----0-------------0------------|-----------------------2--------||-2------------------------------|---------------------3----------|
|
|-2-------------0-------0--------|--1--------1-1-1-1--------------||-3---------3-3-3---3---3---3----|--3--------3-3-3-3---0-0-0-0----||-2---------2-2-2---2---2---2----|--2--------2-2-2-2---0-0-0-0----||-0---------0-0-0-------0---0----|--0--------0-0-0-0---0-0-0-0----||------------------------------0-|--------------------------------||--------------------------------|---------------------3---3------|
Pre-Chorus 2|-0-0-0-0-0--0--0-----0---|-0-0-0-0--0--0--0--0-||-1-1-1-1-1--1--1-3-3-3---|-1-1-1-1--1--1--1--1-||-0-0-0-0-0--0--0-0-0-0---|-2-2-2-2--2--2--2--2-||-2-2-2-2----2--2-0-0-----|-2-2-2-2--2--2--2--2-||-3-3-3-3----3--3-2-2-----|-0-0-0-0--0--0--0--0-||-------------------------|---------------------|
|
|-------------------------|---------------------||-------------------------|---------------------||-5---------(5)---4h==5p4-|-2-------(2)---------||-5---------(5)-----------|-2-------(2)---------||-3---------(3)---2h==3p2-|-0-------(0)---12\---||-------------------------|---------------------|
|-0-0-0-0-0-0-0-0-0-0-|-3-3-3-3-3-3-3-3--||-0-0-0-0-0-0-0-0-0-0-|-0-0-0-0-0-0-0-0--||-0-0-0-0-0-0-0-0-0-0-|-0-0-0-0-0-0-0-0--||-2-2-2-2-2-2-2---2---|-0-0-0-0-0-0-0-0--||-2-2-2-2-2-2-2---2---|-2---2---2---2----||-0-0-0-0-0-0-0---0---|-3---3---3---3----|
|
|---------------------|-3-------3-3-3-3--||---------------------|-3-------3-3-3-3--||---------------------|-0-------0-0-0-0--||-2-----------------0-|-0-------0-0-0-0--||-2-----2-2-2-2-2-2---|------------------||-0-----0-0-0-0-0-0---|-3-------3-3-3-3--|
Chorus 2|-0--0----------|-0--0----0---0---0--0---0-||-1--1---1--1-0-|-0--0----0---0---0--0---0-||-0--0-0-2--2-0-|-0--0----0---0---0--0---0-||-2--2-0-2--2-0-|-2--2--------2------2-----||-3--3-2-0--0---|-2--2--------2------2-----||---------------|-0--0--------0------0-----|
|
| ~~~~~~~|---------------|--------------------------||---------------|--------------------------||-5--5---2--2---|-------------7s9-9-(9)\---||-5--5-5-2--2---|---------7-9-7s9-9-(9)\---||-3--3-2-0--0---|----7-10------------------||-------------3-|-0------------------------|
|-1-1-1-0-(0)-0-0-0-0-0-|-1-1-1-0-(0)-0-0-3-3-3-3--||-1-1-1-1-(1)-1-1-1-1-1-|-1-1-1-1-(1)-1-1-0-0-0-0--||-2-2-2-0-(0)-0-0-0-0-0-|-2-2-2-0-(0)-0-0-0-0-0-0--||-3---3-2-(2)-2---2-2---|-3---3-2-(2)-2---0---0----||-3---3-------3---3-3---|-3---3-------3---2---2----||-1---1-----------------|-1---1-----------3---3----|
|
|-1-1-1-----------------|-1-1-1-0-(0)--------------||-1-1-1-----------------|-1-1-1-1-(1)-1---0--------||-2-2-2-5--5------------|-2-2-2-0-(0)-0---0--------||-3-3-3-5--5------5-----|-3-3-3-2-(2)-0h2-0--------||-3-3-3-3--3--5-7-3-7-5-|-3-3-3-3-(3)--------------||-1-1-1-------3-5---5-3-|-1-1-1-----------3--------|
|-0--0----------|-0--0----0---0---0--0---0-||-1--1---1--1-0-|-0--0----0---0---0--0---0-||-0--0-0-2--2-0-|-0--0----0---0---0--0---0-||-2--2-0-2--2-0-|-2--2--------2------2-----||-3--3-2-0--0---|-2--2--------2------2-----||---------------|-0--0--------0------0-----|
|
| ~~~~~~~|---------------|--------------------------||---------------|--------------------------||-5--5---2--2---|-------------7s9-9-(9)\---||-5--5-5-2--2---|---------7-9-7s9-9-(9)\---||-3--3-2-0--0---|----7-10------------------||-------------3-|-0------------------------|
|-1-1-1-0-(0)-0-0-0-0-0-|-1-1-1-0-(0)--------------||-1-1-1-1-(1)-1-1-1-1-1-|-1-1-1-1-(1)--------------||-2-2-2-0-(0)-0-0-0-0-0-|-2-2-2-0-(0)--------------||-3---3-2-(2)-2---2-2---|-3---3-2-(2)--------------||-3---3-------3---3-3---|-3---3-------3-1-3-2-1-0--||-1---1-----------------|-1---1--------------------|
|
|-1-1-1-----------------|--------------------------||-1-1-1-----------------|-------5-(5)--------------||-2-2-2-5--5------------|-2-----5-(5)--------------||-3-3-3-5--5------5-----|-3-5-5-5-(5)--------------||-3-3-3-3--3--5-7-3-7-5-|-3-3-3-3-(3)-3------------||-1-1-1-------3-5---5-3-|-1-1-1---------6-8-7-6-5--|
Bridge|-----------------------|---------------------------||-----------------------|---------------------------||-----------------------|---------------------------||-6---------8-----------|---------------------------||-6-6-8-6s8-8-8-10-8s10-|-10-10-12-12-10-10---------||-4-4-4-4s6-6-6--6-6s=8-|--8--8--8--8--8--8-8-7-6-5-|
|
|-----------------------|---------------------------||-----------------------|---------------------------||-----------------------|--5-----------5------------||-6-6-------8-8---------|--5--5--7--7--5--5---------||-6-6-8-6s8-8-8-10-8s10-|--3--3--3--3--3--3-3-------||-4-4-4-4s6-6-6--6-6s=8-|---------------------7-6-5-|
|-----------------------|----------------------------||-----------------------|----------------------------||-----------------------|----------------------------||-6---------8-----------|----------------------------||-6-6-8-6s8-8-8-10-8s10-|-10-10-12-12-10-10----------||-4-4-4-4s6-6-6--6-6s=8-|--8--8--8--8--8--8-8-7-6-5--|
|
|-----------------------|----------------------------||-----------------------|----------------------------||-----------------------|--5-----------5-------------||-6-6-------8-8---------|--5--5--7--7--5--5----------||-6-6-8-6s8-8-8-10-8s10-|--3--3--3--3--3--3-3--------||-4-4-4-4s6-6-6--6-6s=8-|---------------------7-6-5--|
|--------------------|----------------|-------------|--3----(3)------3-3--||--------------------|-------4---(4)\-|-------------|--3----(3)------3-3--||--------------------|-8-----5---(5)\-|-------------|--0----(0)------0-0--||-6---------8--------|-8--8--5---(5)\-|-3-----------|--0----(0)------0-0--||-6-6-8-6s8-8-8-10-8-|-6--5--3---(3)\-|-3-----------|--2----(2)------2----||-4-4-4-4s6-6-6--6---|----------------|-1-----------|--3----(3)------3----|
|
|--------------------|----------------|-------------|-^3-----3------------||--------------------|----------------|-6----(6)----|-^3-----3------------||--------------------|-8-----5---(5)\-|-5----(5)----|-^0-----0------------||-6-6-------8-8------|-8--8--5---(5)\-|-3----(3)----|-^0-----0---------0--||-6-6-8-6s8-8-8-10-8-|-6--5--3---(3)\-|-------------|-------------10s7----||-4-4-4-4s6-6-6--6---|----------------|-------------|-^3-----3------------|
Guitar Solo|-0------------0--0---------------------------0---------||-1------------1--1-----0-------1-----1-------1---0-----||-0------------0--0-----0-------2-----2-------2---0-----||-2---------------2-----0-------2-----2-------2---0-----||-3---------------3-----2-------0-----0-------0---------||-------------------------------------------------------|
|
|---------------------------------15--------------------||---15b17r(15)---15b17====(15)r------15b17==(15)r-------||---------------------------------------------------14\-||-------------------------------------------------------||-------------------------------------------------------||-------------------------------------------------------|
|-0---0---0---0----0--0---0-0-0-0--0--0-|-1---1----1----0---(0)---------3-----||-0---0---0---0----0--0---0-0-0-0--0--0-|-1---1----1----1---(1)---3h=5----5p3-||-0---0---0---0----0--0---0-0-0-0--0--0-|-2---2----2----0---(0)---------------||-2---2---2---2----2--2---2---2----2----|-3--------3----2---(2)---------------||-2---2---2---2-------0---0---2----2----|-3--------3--------------------------||-0---0---0---0-------0---0---0----0----|-1--------1--------------------------|
|
| \1/ \1/ \1/| ~~~|-----5---------------------------------|-------------------------------------||-------5-8-5---------------------------|-------------------------------------||-7b9---------7b9r(7)-7b9---------------|-7---9---12---10p9-10p9----12-12-----||---------------------------------------|-------------------------------------||---------------------------------(0)---|------------------------10-----------||---------------------------------------|-------------------------------------|
|-----------1--1-------1--------0-------(0)----0-0---3--3-3-3-||-----------1--1-------1--------1-------(1)----1-1---0--0-0-0-||-----------2--2-------2--------0-------(0)----0-0---0--0-0-0-||-----------3----------3--------2-------(2)----2-----0----0---||-----------3----------3-----------------------3-----2----2---||-----------1----------1-----------------------------3----3---|
|
| ~~~~~~~~~~~|-15pb17==(15)r==(15)-----------------------------------------||---------------------13-16b20====(16)r(16)-13-----(13)---4s8-||-------------------------------------------------------------||-------------------------------------------------------------||-------------------------------------------------------------||-------------------------------------------------------------|
|0-------0-0--------0-0--0-0-------|---0-----0----0---0--0--0--0-------------0-0-0-0-0--0-----0||1-------1-1-0---1--1-1--1-1----0--|---0-----0----0---0--0--0--0-------------0-0-0-0-0--0-----0||0-------0-0-0---2--2-2--2-2----0--|---0-----0----0---0--0--0--0-------------0-0-0-0-0--0-----0||2---------2-0---2----2----2----0--|---2-----2----2---2-----2--2-------------2-2---2----2------||3---------3-2---0----0----0-------|---2-----2--------2-----0----------------2-2---2----2------||----------------------------------|---0-----0--------0-----0----------------0-0---0----0------|
|
| PM---------------| ~~|8----8----8-8---------------------|--------15b17---(15)---15-15pb17-15pb17r15-----------------||8h10-8h10-8-8-8-------------------|-----13--------------------------------------------15b17===||9h10-9h10-9-----9-10-9----9-10-9-9|9s14-------------------------------------------------------||-----------------------10---------|-----------------------------------------------------------||----------------------------------|-----------------------------------------------------------||----------------------------------|-----------------------------------------------------------|
|---1-------1--------1-----0----(0)-----------3------------------||---1-------1--------1-----1----(1)------3h=5---------5p=3-------||---2-------2--------2-----0----(0)------------------------------||---3----------------3-----2----(2)------------------------------||---3----------------3-------------------------------------------||---1----------------1-------------------------------------------|
|
| ~~~~~|----------15----15----------------------------------------------||-(15)b17=====15----15-15-15-15-15r(15)-13-13---(13)-13-13-------||----------------------------------------------------------15b17-||----------------------------------------------------------------||----------------------------------------------------------------||----------------------------------------------------------------|
|--1----1-------1-----0------(0)-0-0-5-5---5----5--|||--1----1-------1-----1------(1)-1-1-5-5---5----5--|||--2----2-------2-----0------(0)-0-0-2-2---2----2--|||--3------------3-----2------(2)-2---2-----2-------|||--3------------3----------------3---0-----0-------|||--1------------1----------------------------------||
|
|-18b20r==(18)-15-18-18b20==(18)---------(18)r\----|||--------------------------------------------------|||--------------------------------------------------|||--------------------------------------------------|||--------------------------------------------------|||--------------------------------------------------||
Pre-Chorus 3|-2-2-2-2-2-2-2-2---2-2-|-2-2-2-2-2-2-2-2-2-2------||-3-3-3-3-3-3-3-3---3-3-|-3-3-3-3-3-3-3-3-3-3-3--2-||-2-2-2-2-2-2-2-2---2-2-|-4-4-4-4-4-4-4-4-4-4-4--2-||-0-0---0-0---0-0-------|-4-4-4-4---4---4---4-4--2-||-----------------4-----|-2-2-2-2---2---2---2-2----||-----------------------|--------------------------|
|
|-----------------------|--------------------------||-3---------------------|--------------------------||-2---------------------|-4-----------------4------||-0---------------------|-4-----------------4------||-----------------4h5p4-|-2-----------------2------||-----------------------|---------------------7\---|
2/4 <|-2--------|-^0--------|-0-0---0---0---||-2--------|-^2--------|-2-2---2---2---||-2--------|-^2--------|-2-2---2---2---||-4--------|-^2--------|-2-2---2---2---||-4--------|-^0--------|-0-0---0---0---||-2--------|-----------|---------------|
|
| <|----------|-----------|---------------||----------|-----------|---------------||----------|-----------|---------------||----------|-----------|-2-2-2-2-2-2-2-||----------|--0--------|-0-0-0-0-0-0-0-||-2--------|-----------|---------------|
Out-Chorus 4/4||--2--2---2--2---|-2--2----0--0-0h=2---0--0---2----|||o-3--3---3--3---|-2--2----0--0-0h=2---0--0---2----|||--2--2---4--4---|-2--2----2--2-2------2------2----|||--0--0---4--4---|-4--4----4----4------4------4----|||o------4-2--2-0-|-4-------------------------------|||----------------|-2-------------------------------|
|
| ~~~~~~~~~~~~~~~||----------------|---------------------------------|||o-3-------------|---------------------------------|||--2--2---4--4---|--------------9s11-(11)---(11)\--|||--0--0---4--4---|-4-------9-11-9s11-(11)---(11)\--|||o------4-2--2-0-|-4--9-12-------------------------|||----------------|-2-------------------------------|
|-3-3---2-(2)-----------|-3-3-3-2-(2)-2-2-0-0-0-0----||-0-0-0-3-(3)-----------|-0-0-0-3-(3)-3-3-2-2-2-2----||-0-0-0-2-(2)-----------|-0-0-0-2-(2)-2-2-2-2-2-2----||-0---0-0-(0)-----0-----|-0---0-0-(0)-0---2---2------||-------------0-2---2-0-|-----------------0---0------||-3---------------------|-3---3----------------------|
|
|-3-3---2-(2)-----------|-3-3---2-(2)-2-2-0---0-0----||-0-0---3-(3)-----------|-0-0---3-(3)-3-3-2-2-2-2----||-0-0---2-(2)-----------|-0-0---2-(2)-2-2-2-2-2-2----||-0-----0-(0)-----0-----|-0-----0-(0)-0---2-2-2------||-------------0-2---2-0-|-----------------0---0------||-3---------------------|-3--------------------------|
|-2--2---2--2---|-2--2----0--0-0h=2---0--0---2----||-3--3---3--3---|-2--2----0--0-0h=2---0--0---2----||-2--2---4--4---|-2--2----2--2-2------2------2----||-0--0---4--4---|-4--4----4----4------4------4----||------4-2--2-0-|-4-------------------------------||---------------|-2-------------------------------|
|
| ~~~~~~~~~~~~~~~|---------------|---------------------------------||-3-------------|---------------------------------||-2--2---4--4---|--------------9s11-(11)---(11)\--||-0--0---4--4---|-4-------9-11-9s11-(11)---(11)\--||------4-2--2-0-|-4--9-12-------------------------||---------------|-2-------------------------------|
1.|-3-3---2-(2)-----------|-3-3-3-2-(2)-2-2--0--0-0-0--|||-0-0-0-3-(3)-----------|-0-0-0-3-(3)-3-3--2--2-2-2-o|||-0-0-0-2-(2)-----------|-0-0-0-2-(2)-2-2--2--2-2-2--|||-0---0-0-(0)-----0-----|-0---0-0-(0)-0----2----2----|||-------------0-2---2-0-|------------------0----0---o|||-3---------------------|-3---3----------------------||
|
|---3---2-(2)-----------|-3-3---2-(2)-2-2------------|||---0---3-(3)-----------|-0-0---3-(3)-3-3-----------o|||---0---2-(2)-----------|-0-0---2-(2)-2-2------------|||-5-0---0-(0)-----0-----|-0-0---0-(0)-0--------------|||-5-----------0-2---2-0-|-----------------15\-------o|||-3-3-------------------|-3--------------------------||
2.|-3-3---2-(2)-----------|-3-3--2-(2)-----------|------^2-(2)------*||-0-0-0-3-(3)-----------|-0-0--3-(3)-----------|-0-0--^3-(3)------*||-0-0-0-2-(2)-----------|-0-0--2-(2)-----------|-0-0--^2-(2)------*||-0---0-0-(0)-----0-----|-0-0--0-(0)-----0-----|-0-0--^0-(0)------*||-------------0h2---2p0-|------------0-2---2-0-|-2-2--------------*||-3---------------------|-3--------------------|-3-3--------------*|
|
| >|-------2-(2)-----------|------2-(2)-----------|------------------*||-0-0-0-3-(3)-----------|------3-(3)-----------|------------------*||-0-0-0-2-(2)-----------|-0-0--2-(2)-----------|------------------*||-0-0-0-0-(0)-----0-----|-0-0--0-(0)-----------|------------------*||-------------0-2---2-0-|----------------------|------------------*||-3---3-----------------|-3-3------------------|------------------*|
There's a face in the mirror, and you close your eyes Much easier to turn away, than to take a look inside So you're thinking it's over, walking away Let your little world crash and burn, ooh what a price to pay Didn't anybody tell you it's not who's right or wrong Hold the line, is this what's going on? Where you going now? When your world's turned inside out Isn't love what it's all about? Where you going now? When you get to the top of the hill Gonna be there yes I will There's a crack in the mirror, there's a hole in the sun Full moon in the midnight sky, and you feel like you wanna run So you blow out the candle and you turn out the light Then you stumble into darkness - who'd believe that love is blind? Didn't anybody tell you it's never too late to try? Hold the line, before you say goodbye Where you going now? When your world's turned inside out Isn't love what it's all about? Where you going now? When you get to the top of the hill Gonna be there yes I will Now I'm not talking about what's good for me And I'm not saying how you ought to be But if there is a message shining on through to you Take a little peace of mind and let that love-light shine Didn't anybody tell you it's never too late to try? Hold the line, before you say goodbye Where you going now? When your world's turned inside out Isn't love what it's all about? Where you going now? When you get to the top of the hill Gonna be there yes I will Where you going now? When your world's turned inside out Isn't love what it's all about? Where you going now? When you get to the top of the hill Gonna be there yes I will Gonna be there yes I will
Tap to rate this tab
 
# A B C D E F G H I J K L M N O P Q R S T U V W X Y Z