Daniels Charlie - Devil Went Down To Georgia tab


Solos are labeled as Guitar Hero labels them.Two guitar parts for beginning:|------------------15-17--17-18-17-15-------||-15--15-17-18--18--------------------18-17-||-------------------------------------------||-------------------------------------------||-------------------------------------------||-------------------------------------------|
|
|------------------18-20--20-22-20-18-------||-18--18-20-22--22--------------------22-20-||-------------------------------------------||-------------------------------------------||-------------------------------------------||-------------------------------------------|
|--------------------13-15-17-15-13---------||-13--13-15-17-15-17----------------17------||-------------------------------------------||-------------------------------------------||-------------------------------------------||-------------------------------------------|
|
|--------------------17-18-20-18-17---------||-17--17-18-20-18-20----------------20------||-------------------------------------------||-------------------------------------------||-------------------------------------------||-------------------------------------------|
|----sim.------------|----------------------------------------------||-15h17p15\13-13h15p13\11-11-13-11-10-10-11-10-||----------------------------------------------||----------------------------------------------||----------------------------------------------||----------------------------------------------|
|
|----------------------------------------------||-18h20p18\17-17h18p17\15-15-17-15-13-13-15-13-||----------------------------------------------||----------------------------------------------||----------------------------------------------||----------------------------------------------|
---------------------------|
|-------------------------------------------||-8--8--10--8-6--6--8--6--5-----------------||---------------------------7------5--7-----||-------------------------------7-----------||-------------------------------------------||-------------------------------------------|
|
|-------------------------------------------||-12-12-13-12-10-10-12-10-8-----------------||---------------------------10--------------||-------------------------------------------||-------------------------------------------||-------------------------------------------|
|
|-------------------------------------------||---------------------------7---2--5--7-----||---------------------------7---2--5--7-----||---------------------------5---0--3--5-----||-------------------------------------------||-------------------------------------------|
|-------------------------------------------||-------------------------------------------||-------------------------------------------||-------------------------------------------||-------------------------------------------||-------------------------------------------|
|
|----------------------22\\1----------------||-*1//22------------------------------------||-------------------------------------------||-------------------------------------------||-------------------------------------------||-------------------------------------------| *Note: fast pick while sliding
|-------------------------------------------||-------------------------------------------||-------------------------------------------||-------------------------------------------||-----5-5-5-5-5-5-5-5-5-5-5-5-5-5-5-5-------||--X\-0-0-0-0-0-0-0-0-0-0-0-0-0-0-0-0-------| Repeat...
|
|-------------------------------------------||-------------------------------------------||-------------------------------------------||-------------------------------------------||-------------------------------------------||-------------------------------------------|
|-------------------------------------------||-------------------------------------------||-------------------------------------------||-------------------------------------------||-10h12---------10h12---------10h12---------||-------------------------------------------|
|
|-------------------------------------------||-------------------------------------------||-------------------------------------------||-------------------------------------------||-------------------------------------------||-10h12-0-0-0-0-10h12-0-0-0-0-10h12-0-0-----|
|-------------------------------------------||-------------------------------------------||-------------------------------------------||-------------------------------------------||-10h12---------8h10---------12h13----------||-------------------------------------------|
|
|-------------------------------------------||-------------------------------------------||-------------------------------------------||-------------------------------------------||-------------------------------------------||-10h12-0-0-0-0-12h13-0-0-0-0-10h12-0-0-----|
|-------------------------------------------||-------------------------------------------||-------------------------------------------||-------------------------------------------||-10h12---------10h12---------10h12---------||-------------------------------------------|
|
|-------------------------------------------||-------------------------------------------||-------------------------------------------||-------------------------------------------||-------------------------------------------||-10h12-0-0-0-0-10h12-0-0-0-0-10h12-0-0-----|
|-------------------------------------------||-------------------------------------------||-------------------------------7--2--5-----||-------------------------------7--2--5-----||-10h12---------10h12-----10h12-5--0--3-----||-------------------------------------------|
|
|-------------------------------------------||-------------------------------------------||-------------------------------------------||-------------------------------------------||-------------------------------------------||-10h12-0-0-0-0-10h12-0-0-10h12-------------|
|-------------------------------------------||-------------------------------------------||-------------------------------------------||-------------------------------------------||-10h12---------10h12---------10h12---------||-------------------------------------------|
|
|-------------------------------------------||-------------------------------------------||-------------------------------------------||-------------------------------------------||-------------------------------------------||-10h12-0-0-0-0-10h12-0-0-0-0-10h12-0-0-----|
|-------------------------------------------||-------------------------------------------||-------------------------------------------||-------------------------------------------||-10h12---------8h10---------12h13----------||-------------------------------------------|
|
|-------------------------------------------||-------------------------------------------||-------------------------------------------||-------------------------------------------||-------------------------------------------||-10h12-0-0-0-0-12h13-0-0-0-0-10h12-0-0-----|
|-------------------------------------------||-------------------------------------------||-------------------------------------------||-------------------------------------------||-10h12---------10h12---------10h12---------||-------------------------------------------|
|
|-------------------------------------------||-------------------------------------------||-------------------------------------------||-------------------------------------------||-------------------------------------------||-10h12-0-0-0-0-10h12-0-0-0-0-10h12-0-0-----|
|-------------------------------------------||-------------------------------------------||-------------------------------------------||-------------------------------------------||-------------------------------------------||-------------------------------------------|
|
|-------------------------------------------||-------------------------------------------||-------------------------------------------||-------------------------------------------||-------------------------------------------||-5*-5*-5*-5*-5*-5*-5*-5*-------------------|
*Harmonic
|--------------------------------------------------------||--------------------------------------------------------||-----7------7------7------7------5------5------5------5-||-----7------7------7------7------5------5------5------5-||-5-5-5--5-5-5--5-5-5--5-5-5--3-3-3--3-3-3--3-3-3--3-3-3-||--------------------------------------------------------|
|-------------------------------------------------------------||-------------------------------------------------------------||-------12-------12-------12-------12-----7-----7-----7-----7-||-------12-------12-------12-------12-----7-----7-----7-----7-||-10-10-10-10-10-10-10-10-10-10-10-10-5-5-5-5-5-5-5-5-5-5-5-5-||-------------------------------------------------------------|
|--------------------------------------------------------||--------------------------------------------------------||-----7------7------7------7------5------5------5------5-||-----7------7------7------7------5------5------5------5-||-5-5-5--5-5-5--5-5-5--5-5-5--3-3-3--3-3-3--3-3-3--3-3-3-||--------------------------------------------------------|
|-------------------------------------------||-------------------------------------------||-2------2----------------------------------||-2------2----------------------------------||-0------0--5-3-2---------------------------||-----------5-3-2---------------------------|
[Insert beginning riff here]
|-------------------------------------------||-------------------------------------------||-------------------------------------------||-------------------------------------------||-5-5-5-5-5-5-5-5-5-5-5-5-5-5-5-5-----------||-0-0-0-0-0-0-0-0-0-0-0-0-0-0-0-0-----------| (etc.)
| ||-*13---------b14---------rb13-----------13-||-*13---------b14---------rb13-----------13-||-------------------------------------------||-------------------------------------------||-------------------------------------------||-------------------------------------------|
*This section is hard to tab out, but its played like this: Four fast strokes muted over thirteenth frets of e and B strings. Then hold down both 13 frets, fast pick while bending up to 14 and then back down.
|--------------------------------------------||--------------------------------------------||-7-x-x-7-x-10-10-x-10-x-x-9-x-x-9-x-7-7-x-7-||-7-x-x-7-x-10-10-x-10-x-x-9-x-x-9-x-7-7-x-7-||--------------------------------------------||--------------------------------------------|
|
|--------------------------------------------||--------------------------------------------||-7---------10-------------9---------7-------||-7---------10-------------9---------7-------||-5---------8--------------7---------5-------||--------------------------------------------|(Repeat)
Devil Solo Background|----------------------------------------------||----------------------------------------------||----------------------------------------------||-7---------7----------------------------------||-5---------5----------------------------------| |---0-5-6-7---7-7-6-5-3-5-6-7-3-5-3------------|
|
|----------------------------------------------||----------------------------------------------||-----------------------------------------5wu--||-----------------------------------------5wu--||-----------------------------------5wd---5wu--||-----------------------------------0wd--------|
Devil Solo A|-------------------------------------------------||-------------------------------------------------||-14h15p14h15p14h15p14h15p14h15p14h15p14h15p14h15-||-------------------------------------------------||-------------------------------------------------||-------------------------------------------------|
|-22p17--------------------------------------------||-------18-----------------------------------------||----------19--------------------------------------||-------------20p19p17-----------------------------||----------------------20-17-13p12-----------------||----------------------------------15-12-8p7p5-3-0-|
|-----------------------------10-12-8h10h13---||-------------------6------10-----------------||-----------------7---7h10--------------------||---------7-----7-----------------------------||-----5h8---5h8-------------------------------||-3h7-----------------------------------------|
|-----------------------------10-------13-15b17-||-10h13-------13-----------10----13-10----------||-------12b14----10--12b14----------------------||-----------------------------------------------||-----------------------------------------------||-----------------------------------------------|
Devil Solo B|-10-10p5--------5-10p5--------5-10p5--------5-10p5--------5-||---------7----7--------7----7--------7----7--------7----7---||-----------10------------10------------10------------10-----||------------------------------------------------------------||------------------------------------------------------------| |------------------------------------------------------------|
|-10p5--------5-10p5--------5-10p5--------5-10p5--------5-||------7----7--------7----7--------7----7--------7----7---||--------10------------10------------10------------10-----||---------------------------------------------------------||---------------------------------------------------------| |---------------------------------------------------------|
|-10p5-------------------10-10-10----------------10-10-------||---------------------10----------10----------10-------10----||------10-11-11----11----------------11----11-------------11-||---------------10----------------------10-------------------||------------------------------------------------------------||------------------------------------------------------------|
|---------10---------------10-10--------------------||------10----10---------10-------10-----------------||---11----------11---11-------------11--------------||-8----------------8--------------------10-8-7-8-10-||---------------------------------------------------||---------------------------------------------------|
|-------------------------10-12-13-10-13-10-||----------------10-11-13-------------------||-7-9-10-9-10-12----------------------------||-------------------------------------------||-------------------------------------------||-------------------------------------------|
Devil Solo C
|-------------------------------------------||-15-15-15-15-15-15-15-15-15----------------||-------------------------------------------|X4|-------------------------------------------||-------------------------------------------||-------------------------------------------|
|----------15-17-18-17-15----------15p13-------13p10-------||-15-17-18----------------18-17-15-------15p13-------13p10-||----------------------------------------------------------||----------------------------------------------------------||----------------------------------------------------------||----------------------------------------------------------|
|-10p8------8p5-------------------------------------||------10p8-----8p6-10p8----------------------------||------------------------10p7-12p10-------10p7------||-----------------------------------12p10------10p7-||---------------------------------------------------||---------------------------------------------------|
|-------------------------------------------------||-------------------------------------------------||-7p5-----7p5-------------------------------------||-----8p6-----7p5-10p8-------------5h7h10-7h10h12-||----------------------10p8-5h8h10----------------||-------------------------------------------------|
|-------------------------------------------||---------6h8h10-8h10h13-8b10~--------------||-7h10h12-----------------------------------||-------------------------------------------||-------------------------------------------||-------------------------------------------|
Devil Solo D|-------------------------------------------||-------------------------------------------||-------------------------5-7---5--7--------||-0-3-4-0-4-5-0-5-6-0-6-7-----7-------/8----||-------------------------------------------||-------------------------------------------|
|---------------------------------------------||---------------------------------------------||---------------------------------------------||-7h9h12p9p7---------------------------7h9h12-||------------12p9p7-------------7h9h12--------||-------------------12p9p7h9h12---------------|
|----------------------------15h17h19-17----||-10h12h15-12h15h17-15h17h19----------------||-------------------------------------------||-------------------------------------------||-------------------------------------------||-------------------------------------------|
Devil Solo E|-------------------------------------------||-3h6p3h6p3h6p3h6p3h6p3h6p3h6p3h6p3h6-------||-------------------------------------------||-------------------------------------------||-------------------------------------------||-------------------------------------------|
|----------------------------------------------20b22-18-||-----------------------------------b19rb17-------------||-0h3h6-0h6h9-0h9h12-0h12h15-/18------------15----------||--------------------------------0----------------------||-------------------------------------------------------||-------------------------------------------------------|
|-18p15----------17p14----------16p13----------15p12-------------||-------17-------------16-------------15-------------14----------||----------18p15----------17p14----------16p13----------15p12\11-||----------------------------------------------------------------||----------------------------------------------------------------||----------------------------------------------------------------|
Devil Solo F|-12h13h15p13p12----------12h15p12----------12h15p12-------------||----------------14-13h14----------14-13h14----------14-13-14-17-||----------------------------------------------------------------||----------------------------------------------------------------||----------------------------------------------------------------||----------------------------------------------------------------|
|-13h17p13----13h17p13----------13h17p13-------------13h17p13-||----------17----------15-14h15----------15-14-15-17----------||-------------------------------------------------------------||-------------------------------------------------------------||-------------------------------------------------------------||-------------------------------------------------------------|
|----------13h17p13----------13h17p13----------12h15p12-------||-15-14-15----------15-14-15----------15-14-14----------14p13-||-------------------------------------------------------------||-------------------------------------------------------------||-------------------------------------------------------------||-------------------------------------------------------------|
|-------------------------------------------------------||-15p13-------------------------------------------------||-------14p12-------12-------12-------------------------||-------------15p12----15-15----15-12-11-12-------------||-------------------------------------------15-12-------||-------------------------------------------------15-12-|
Devil Solo G|---18b20—17b19rb17b19rb17---------------------------||-----------------------------------------------8----||---------------------------------5---7-5-/10-7---10-||-0-------------------------0-7-5---7----------------||----------------------------------------------------||----------------------------------------------------|
|------8----10-8-8-12----8------------------||-10-8---10-----------10---8-10-------------||-------------------------------1//*--------| |-------------------------------------------||-------------------------------------------||-------------------------------------------|
*Fast pick, sliding with tip of finger all the way up neck to pickups
Devil Solo H|--------------------------------------------------------||-------------------------------13h15p13----------13h15\-||-10p7---------7h10-------12h14----------14p12h14--------||------10p8h10------12h15--------------------------------||--------------------------------------------------------||--------------------------------------------------------|
|--------------------------------6h8h10-----------10-||-10p8-------------------8h10------------10h11h13----||------10p7---------7h10------10---------------------||-----------10p8h10----------------------------------||----------------------------------------------------||----------------------------------------------------|
|----------10----10--------13h15p13----------13----------------------||-10h11h13----13-----13h15----------15p13h15----15p13----13h15-13----||-----------------------------------------------------15----------15-||--------------------------------------------------------------------||--------------------------------------------------------------------||--------------------------------------------------------------------|
|-------------------------------------------||-------------------------------------------||-------------------------------------------||-/10-8----------------8--------------------||-------10p8\7/8h10h13---10p8\7h8p7\5-h7h8--||-------------------------------------------|
|-------------------------------------------------------||-------------------------------------------------------||----------------7h9h10---7h9h10---7h9h10/12----9h10h12-||-5h7h8-7h8h10-8--------8--------7-----------10---------||-------------------------------------------------------||-------------------------------------------------------|
|-------------------------------------------------||-------------------------------------------------||----10h12h14----12h14h15----14h15h17----15h17h19-||-12----------14----------15----------17----------||-------------------------------------------------||-------------------------------------------------|
|----------13h15h17p15p13-------------------------------------||-13h15h17----------------17p15p13----------------------------||----------------------------------15p14p12h14h15p14p12-------||-------------------------------------------------------15-12-||-------------------------------------------------------------||-------------------------------------------------------------|
|------------------------------------------------------------||----------/15-13-13b15rb13-10-----------------------------7-||------------------------------12-10h11--------------------7-||-13-14-10-------------------------------------------------7-||---------------------------------------/12-12-11-10-8h9-5-5-||------------------------------------------------------------|
That last solo is ridiculous, sorry, but that’s the best I can do.
|---------------------------------------------||----------------b18rb16-16b19rb16b19rb16b19~-||-7—5tr17*---5--------------------------------||-7----------5--------------------------------||-5----------3--------------------------------||---------------------------------------------|
*Start bent to 7 and slowly unbend to 5
|---------------------------------------------------------||------15h17h18p17p15----15h17h18p17p15----15h17h18p17p15-||-7-17----------------17----------------17----------------||-7-------------------------------------------------------||-5-------------------------------------------------------||---------------------------------------------------------|
|----------------------------20b22-20-17----------17-------||----15h17h18p17p15-18b20~---------------20-17-20----20b22~||-17-----------------------5-------------------------------||--------------------------5-------------------------------||--------------------------3-------------------------------||----------------------------------------------------------|
In octaves:
|----------------------------------||-5-6-5-6-8-6-5---5-6-5-6-8-6-5----||---------------7---------------7--||----------------------------------||----------------------------------||----------------------------------|
|-------------------------5------||-5---------5---5-6-8-6-8---8----||---5-7-5-7---7------------------||--------------------------------||--------------------------------||--------------------------------|X3
|-17-13-15----13--------------------------------||----------17----15-17-13-15----13--------------||----------------------------16----14-16-12-14--||-----------------------------------------------||-----------------------------------------------||-----------------------------------------------|
|------------------------------------||------------------------------------||----12------------------------------||-15----14-15-12-14----12------------||-------------------15----14-15-14---||------------------------------------|
Victory Solo Background:
|--------------------------------------------------------||--------------------------------------------------------||-----7------7------7------7------5------5------5------5-||-----7------7------7------7------5------5------5------5-||-5-5-5--5-5-5--5-5-5--5-5-5--3-3-3--3-3-3--3-3-3--3-3-3-||--------------------------------------------------------|
Victory Solo A|----------------------------------------------------------||----------------------------------------------------------||-7----------------------------/7--------------------------||-7------------------------3---/7-10-7-10-9-6-9-6----------||-5--5-5-5-5---3-4-5-3-4-5---5-----------------------------||----0-0-0-0-0-3-4-5------------------------------0-/6-5-3-|
Victory Solo B|-------------------------------------13h15h17p15p13--------------||----------------------------13h15h17----------------17p15p13-15\-||-------------------14h15h17--------------------------------------||-15h17p15p14h15h17-----------------------------------------------||-----------------------------------------------------------------||-----------------------------------------------------------------|
|-------------------------------------13h15h17p15p13--------------||----------------------------13h15h17----------------17p15p13-15\-||-------------------12h14h15--------------------------------------||-14h15p14p12h14h15----------------------------------------------||----------------------------------------------------------------||----------------------------------------------------------------|
|-------------------------------------13h15h17p15p13--------------||----------------------------13h15h17----------------17p15p13-15\-||-------------------14h15h17--------------------------------------||-15h17p15p14h15h17-----------------------------------------------||-----------------------------------------------------------------||-----------------------------------------------------------------|
|-------------------------------------------------------||-15p13p11----------13p11p10----------------------------||----------14p12p10----------12p10p9--------------------||------------------------------------12p10p8------------||--------------------------------------------12p10p8----||----------------------------------------------------10-|
Victory Solo C|-----------------------------------------------||-----------------------------------------------||-----------------------6h7------7h10------9h12-||-----------3h7-----5h7-----7h10------8h12------||-------3h5-----5h8-----------------------------||-0h3h7-----------------------------------------|
|-------------------------------------------------||-------------------------------------------------||-------10h14-------12h15-------14h17-------15h19-||-10h14-------12h15-------14h17-------15h19-------||-------------------------------------------------||-------------------------------------------------|
|----------------------17-22p17----------------||-------------------18----------18-------------||-------17h21----19----------------19----------||-17h20-------19----------------------19-------||----------------------------------------20p17-||----------------------------------------------|
|-------------------------------------------||-------------------------------------------||-------------------------------------------||-------------------------------------------||-13-12-------------------------------------||-------15-12-8p7-5-3-0~--------------------|
Victory Solo D|-------------------------------------------||-------------------------------------------||-10p7---------5-------7--------------------||------10p7h10---7p5/7---10p7h10p7---7-5/7--||----------------------------------8--------||-------------------------------------------|
|-----------------------------------------------||-----------------------------------------------||-----------------------------------------------||-5p3p2-5p3p2p0h2p0-----------------------2h3h5-||-------------------3-1-0---------0h1h3h4-------||-------------------------0h2h3h5---------------|
|-----------------------------------3h5h6/8p6p5---||---------------2-----------2h3h5/6-------------8-||-2h3h5p3p2h3h5---5p3p2h3h5-----------------------||-------------------------------------------------||-------------------------------------------------||-------------------------------------------------|
Victory Solo E|---------------------------------------------||-6p3-----------------------------------------||-----6p3-------------------------------6h7---||---------7p5-----------------------5h7-------||-------------8h5---------------5h8-----------||-----------------8p7-5-3-0—3h7---------------|
|------9h10------------------------=------||-8h10------9h10-6h7----------------------||--------------------6h7------------------||------------------------6h7-3h4----------||--------------------------------4h5-0h1--||-----------------------------------------|
|-------------------------------------------||-------------------------------------------||-------------------------------------------||-------------------------------------------||-----------5p3---6p3---5p3-----------------||-4-/5-0--0-----0-----0-----0-/15-0wd-------|
Victory Solo F|----------------------------------------------------||----------------------------------------------------||-------------------12h14h15/17p15p14----------------||-14h15p14p12h14h15-------------------17p15p14h15h17-||----------------------------------------------------||----------------------------------------------------|
|----------------------------------------------------||----------------------------------------------------||-14h15h17/19p17p15----------------15h17h19/21p19p17-||-------------------19p17p15h17h19-------------------||----------------------------------------------------||----------------------------------------------------|
|----------------------------------------------------------||-------------------------18h20h22p20p18----------22p20p18-||----------------17h19h21----------------21p19p17----------||-20p19p17h19h20-------------------------------------------||----------------------------------------------------------||----------------------------------------------------------|
|----------------15h17h18p17p15----------------/15-17-18-/22~||-------------------------------18p17p15---------------------||-21p19p17h19h21-------------------------17-15---------------||------------------------------------------------------------||------------------------------------------------------------||------------------------------------------------------------|
Victory Solo G|---1h5p1---1h5p1---3h6p3---3h6p3---3h6p3---5h8p5---5h8p5-||-3-------3-------5-------5-------5-------6-------6-------||---------------------------------------------------------||---------------------------------------------------------||---------------------------------------------------------||---------------------------------------------------------|
|---6h10p6----8h12p8----10h13p10----10h13p10----10h13p10-||-8--------10--------11----------11----------11----------||--------------------------------------------------------||--------------------------------------------------------||--------------------------------------------------------||--------------------------------------------------------|
|----12h15p12----15p12----15p12----13h17p13----13h17p13----||-13----------13-------13-------13----------15----------15-||----------------------------------------------------------||----------------------------------------------------------||----------------------------------------------------------||----------------------------------------------------------|
|-------------13-17p13--------------------------||----------15----------15-----------------------||-------14----------------14--------------------||----15----------------------15-----------------||-17----------------------------17--------------||----------------------------------0wd----------|
Victory Solo H|-----------------------------------13h15h17p15p13--||--------------10/17\-/13\-13h15h17-----------------||-7-10/12p10\9--------------------------------------||---------------------------------------------------||---------------------------------------------------||---------------------------------------------------|
|------------------8\-/10\-8h10p8p6\5-8p6p5-------||-17p15p13-13\-/13--------------------------8p6p5-||-------------------------------------------------||-------------------------------------------------||-------------------------------------------------||-------------------------------------------------|
|-------------------------------------------||-------------------------------------------||-7p5p3-5p3p2-------------------------------||-------------5p3p2-------------------------||-------------------5p3p1p0-----------------||-------------------------------------------|
Victory Solo I|-------------------------------15h17h18p17p15-||----------------------15h17h18----------------||-------------12h14h15-------------------------||-12h14h15h17----------------------------------||----------------------------------------------||----------------------------------------------|
|----------18--/22-22~-22\10-10--------------------------||-18p17p15----------------------10/22\10-10--------------||-------------------------------------------9h10-9h10-9~-||--------------------------------------------------------||--------------------------------------------------------||--------------------------------------------------------|
Victory Solo J|-17p15p13-------------------------------------||----------17p15p13-15\--15p13p11----------13\-||---------------------------------14p12p10-----||----------------------------------------------||----------------------------------------------||----------------------------------------------|
|----------------------------------||----------------------------------||----------------------------------||-12p10p8--------------------------||---------12p10p8------------------||-----------------10-/12-/12-\10---|
|-------------------------------------------||------------------------------------15h17--||------------------10-------10/14h17--------||-0h4h5p4p0-/10h12----12-10-----------------||-------------------------------------------||-------------------------------------------|
|-14h15p14h15p14h15p14-13-15-17-18-/22------||-------------------------------------------||-------------------------------------------||-------------------------------------------||-------------------------------------------||-------------------------------------------|
Victory Solo K|-------------------------------------------||-------------------------------------------||------------------------10h12h14-14h17h19--||----------------7h10h12--------------------||---------5h8h10----------------------------||-0h3h5h7-----------------------------------|
|-------17h20p17----------------------------||-17h20----------20p17-------------15h17h18-||-------------------------17h19h21----------||----------------------20-------------------||-------------------------------------------||-------------------------------------------|
|-14h17-13h16-12h15-11h14-10h13-9h12-8h11-7h10-6h9-||--------------------------------------------------||--------------------------------------------------||--------------------------------------------------||--------------------------------------------------||--------------------------------------------------|
|-5h8-4h7-3h6-2h5-1h4-0-3p0-4p1-5p2-6p3-7p4-8p5-9p6-||---------------------------------------------------||---------------------------------------------------||---------------------------------------------------||---------------------------------------------------||---------------------------------------------------|
|-10p7-11p8-12p9-13p10-14p11-15p12-16p13-17----||----------------------------------------15----||----------------------------------------17b19-||----------------------------------------------||----------------------------------------------||----------------------------------------------|
Victory Solo L|-13p10---------------------------------------||-------13p10-13p10---------------------------||-------------------12p10-10p7----------------||------------------------------10p7-10p7------||----------------------------------------10p8-||---------------------------------------------|
|--------------------------------------------------||--------------------------------------------5h6h8-||--------------------------------------3h5h7-------||-3p0----------------------------3h5h7-------------||-----3p0-3p0--------------3h5h7-------------------||-------------5-3~-0h3h5h7-------------------------|
|-5h6h8\-6-5--------------------------------||------------8-6~---------------------------||-------------------------------------------||-------------------------------------------||-------------------------------------------||-------------------------------------------|
Victory Solo M|-------------------------------------15h17h18-22--||-------------------------------15h17--------------||----------------------12h14h15--------------------||----------------12h14-----------------------------||-------10h12h13-----------------------------------||-12h14--------------------------------------------|
|-22-22-17-17-------------------------------------------||-------------17-17-18-18-------------------------------||-------------------------19-19-14-14-------------------||-------------------------------------14-14-15p14-------||-------------------------------------------------17p15-||-------------------------------------------------------|
|----17-12-12-----------------------------------15tr16-||-------------12-12-13-13------------------------------||-------------------------12-12-7-7--------------------||-----------------------------------7-8p7--------------||-----------------------------------------10p5---------||------------------------------------------------------|
Victory Solo N|----------------------------------------------------||----------------------------------------------------||-19b21-21p19p17-19p17p15\14h15h17p15p14\12-15p14p12-||----------------------------------------------------||----------------------------------------------------||----------------------------------------------------|
|------------------------------------------------||------------------------------------------------||-14p12p10\9h10h12p10p9\7-10p9p7-9p7p5\4h5h7p5p4-||------------------------------------------------||------------------------------------------------||------------------------------------------------|
|-----------------------7h8h10p8p7----------------||----------------7h8h10------------10p8p7/8h10h12-||-----------4-h7----------------------------------||-7p5p4-h7----------------------------------------||-------------------------------------------------||-------------------------------------------------|
|-8h10h12p10p8------------------10h12h14p12p10--||--------------12p10p8/10h12h13-----------------||-----------------------------------------------||-----------------------------------------------||-----------------------------------------------||-----------------------------------------------|
|----------------10-12b14rb12b14b12b14rb12---||-13p12p10h12h13-----------------------------||--------------------------------------------||--------------------------------------------||--------------------------------------------||--------------------------------------------|
Victory Solo P (No O for some reason)
Uses pedal for octave up. Pattern something like this:|---------------5p4---5p3---6p5---7p6-8p7---9p8---10p9---|(etc.)|-------------3-----3-----4-----5---------6-----7------8-||---------5h7--------------------------------------------||-0-7-5h7------------------------------------------------||--------------------------------------------------------||--------------------------------------------------------|
I just improv chromatically for Solo P.
Victory Solo Q|-13----------------------13----------------------||----13----------------13----13----------------13-||-------13----------13----------13----------13----||----------15----15----------------15----15-------||-------------18----------------------18----------||-------------------------------------------------|
|-13-13----------------------13-18p13-----------||-------13----------------13----------13--------||----------13----------13----------------13-----||-------------15----15----------------------15--||----------------18-----------------------------||-----------------------------------------------|
|-------------13-18p13----------------------------------------||----------13----------13-------------------------------------||-------13----------------13----------------------------------||----15----------------------15-------------------------------||-18----------------------------18p17p15----------------------||----------------------------------------18p17p15h18p15h17h18-|
|----------------------------------------13-15p13-----------||-------------------------------------13----------13--------||----------------------------------13----------------13-----||----------13tr15---------------15----------------------15--||-15h17h18--------18p17p15h1718-----------------------------||-----------------------------------------------------------|
|-------------------------------------------------||-------------------------------------------------||-------------------------------------------------||-------------------------------------------------||-18p17p15----------------15h17h18p17p15-18p17p15-||----------18p17p15h17h18-------------------------|
|-------------------------------------------||-------------------------------------------||-------------------------------------------||-------------------------------------13----||----------------15h17h18p17p15\13h15----15-||-18p17p15h17p18----------------------------|
Victory Solo R
|-------------------------------------------||-------------------------------------------||-------------------------------------------||--------------------------------5-----5h6--||---------------0-3-4-6----5-6h7---6-7------||-0wd-0-4-5-6b7---------/9------------------|
|---------------------------------------------------||------------------------------------------13h14h15-||---------------------------------12h13h14----------||---5-6h7-------------10h12h13h14-------------------||-7-------/8h10h11h12-------------------------------||---------------------------------------------------|
|----------16h17h20-10-10-10-10-10-10-10-10-||-15h18h20----------------------------------||-------------------------------------------||-------------------------------------------||-------------------------------------------||-------------------------------------------|
|-10-10-10-10-15-10-10-10-17-10-10-10-13-10-15-||----------------------------------------------||----------------------------------------------||----------------------------------------------||----------------------------------------------||----------------------------------------------|
|-10-10-10-15-10-10-17-10-10-18-10-10-18-10-10-||----------------------------------------------||----------------------------------------------||----------------------------------------------||----------------------------------------------||----------------------------------------------|
|-17-10-19\17-10-10-15h17-10-10-13h15-10-13-10-10-10--||-----------------------------------------------------||-----------------------------------------------------||-----------------------------------------------------||-----------------------------------------------------||-----------------------------------------------------|
|-15h17-------------------------------------------||-------10-10-17p15-10-10-15h13-10-10-15h17-10-10-||-------------------------------------------------||-------------------------------------------------||-------------------------------------------------||-------------------------------------------------|
|-13-------13-------13h15-------13h15----14----||----10-10----10-10-------10-10-------10----10-||----------------------------------------------||----------------------------------------------||----------------------------------------------||----------------------------------------------|
|----------15-17-18-17-15-------------------------------||-15-17-18----------------18-17-15----------------------||----------------------------------17-15-14-15-17-15-14-||-------------------------------------------------------||-------------------------------------------------------||-------------------------------------------------------|
|-------------------------------------||-------------------------15-17-18----||----------------14-15-17-------------||-17-15-14-15-17----------------------||-------------------------------------||-------------------------------------|
|----------------------------------------------||----------------------------------------------||----------------------------------------------||-12p0h7-t14p12p7-t16p7h12—-t14p9t15p10t17p12--||----------------------------------------------||----------------------------------------------|
|-------------------12/13h17t22-h12h15t18---||-------------------------------------------||-t14p9t17p10t19p12-------------------------||-------------------------------------------||-------------------------------------------||-------------------------------------------|
|---------------------------------------------------||-h15h18t22-----------------------------------------||-----------h14h17t21-h12h15t19---------------------||-------------------------------h12h15t20\t19p17p12-||---------------------------------------------------||---------------------------------------------------|
|----------------------------------------------------||----------------------------------------------------||----------------------------------------------------||-t20p17p12-t22p17p12-t22p17p14-t20p19p14-t22p19p14--||----------------------------------------------------||----------------------------------------------------|
|------------------------------------------------||------------------------------------------------||-t19p16p11-t19p16p11-t19p16t19p16p12—t21p17p14--||------------------------------------------------||------------------------------------------------||------------------------------------------------|
|-------------------------------------------||-t18p15p12---------------------------------||---------------t21p16t19p16p11-t19p16p11---||-----------h16-----------------------------||-------------------------------------------||-------------------------------------------|
|-------------------------------------------||---------------------t18p15p12-t20p17p13---||-t21p17p14-t21p17p14-----------------------||-------------------------------------------||-------------------------------------------||-------------------------------------------|
|---------------------t18p15p12-t19p15p12---||-t22p18p15-t22p18p15-----------------------||-------------------------------------------||-------------------------------------------||-------------------------------------------||-------------------------------------------|
|-t20p16p13-t21p17p14-t22p18p15-t22p19p16-22~--------||-----------------------------------------22~--------||-----------------------------------------22~--------||----------------------------------------------------||----------------------------------------------------||---------------------------------------------/12p0wd|
Tap to rate this tab
 
# A B C D E F G H I J K L M N O P Q R S T U V W X Y Z