Fire In The Sky tab with lyrics by Darkest Hour - Easy chords and tabs for guitar

Darkest Hour – Fire In The Sky tab

----------------------------------------------------------------------------
                               Darkest Hour
                              Fire In The Sky
----------------------------------------------------------------------------


|---------------|---------------|----------------|----------------||---------------|---------------|----------------|----------------||---------------|---------------|----------------|----------------||-7---7---7-6-4-|-6---6---2-4-6-|-4----4---4-4-4-|-4---4---4-4-4--||---------------|---------------|----------------|----------------| X3|---4---4-------|---2---2-------|----0---0-------|---0---0--------|
|---------------|---------------|---------------|---------------||---------------|---------------|---------------|---------------||---------------|-4---4-------4-|-6---6---6-7-6-|-6---6---6-6-6-||-7---7---7-6-4-|---------6-7---|---------------|---------------||---------------|---------------|---------------|---------------||---4---4-------|---2---2-------|---0---0-------|---0---0-------|
|---------------|--------------|--------------|--------------||---------------|--------------|--------------|--------------||---------------|--------------|--------------|--------------||---------------|--------------|--------------|--------------||-0--0--0-0-0-0-|--0---0-0-0-0-|--0---0-0-0-0-|--0---0-0-0-0-||-0--0--0-0-0-0-|--0---0-0-0-0-|--0---0-0-0-0-|--0---0-0-0-0-|
|----------------|------------|-------------|-------------||----------------|------------|-------------|-------------||----------------|------------|-------------|-------------||-7--7---7-7-7-6-|-6--6-6-6-4-|-4---4-4-4-4-|-4---4-4-4-4-||-4--4---4-4-4-2-|-2--2-2-2-0-|-0---0-0-0-0-|-0---0-0-0-0-||-4--4---4-4-4-2-|-2--2-2-2-0-|-0---0-0-0-0-|-0---0-0-0-0-|
|----------------------|----------------|-----------------|----------------||----------------------|----------------|-----------------|----------------||-11---11--11-11-11-13-|-13-13-13-13-14-|-14--14-14-14-14-|-14-14-14-14-14-||----------------------|----------------|-----------------|----------------||-9----9---9--9--9--11-|-11-11-11-11-12-|-12--12-12-12-12-|-12-12-12-12-12-||----------------------|----------------|-----------------|----------------|
|---------------|------------|------------|------------||---------------|------------|------------|------------||---------------|------------|------------|------------||-7--7--7-7-7-6-|-6--6-6-6-4-|-4--4-4-4-4-|-4--4-4-4-4-||-4--4--4-4-4-2-|-2--2-2-2-0-|-0--0-0-0-0-|-0--0-0-0-0-||-4--4--4-4-4-2-|-2--2-2-2-0-|-0--0-0-0-0-|-0--0-0-0-0-|
|--------------------|------------------|---------------|----------------||--------------------|------------------|---------------|----------------||--------------------|------------------|---------------|----------------||-12----12---12-11-9-|-11---11---7-9-11-|-9---9---9-9-9-|-9---9---9-9-9--||--------------------|------------------|---------------|----------------||----9-----9---------|----7----7--------|---5---5-------|---5---5--------|
|-------------------|---------------|---------------|---------------||-------------------|---------------|-7---7---7-7-7-|-7---7---7-----||-------------------|-9---9---6-7-9-|---------------|-----------7---||-12---12---12-11-9-|---------------|---------------|-------------9-||-------------------|---------------|---------------|---------------||----9----9---------|---7---7-------|---5---5-------|---5---5-------|
|---------------|------------|------------|------------||---------------|------------|------------|------------||---------------|------------|------------|------------||-9--9--9-9-9-7-|-7--7-7-7-5-|-5--5-5-5-5-|-5---5---7--||-9--9--9-9-9-7-|-7--7-7-7-5-|-5--5-5-5-5-|-5---5---7--||-9--9--9-9-9-7-|-7--7-7-7-5-|-5--5-5-5-5-|-5---5---7--|
|---------------|------------|------------|--------||---------------|------------|------------|--------||---------------|------------|------------|--------||-9--9--9-9-9-7-|-7--7-7-7-5-|-5--5-5-5-5-|-5---5--||-9--9--9-9-9-7-|-7--7-7-7-5-|-5--5-5-5-5-|-5---5--||-9--9--9-9-9-7-|-7--7-7-7-5-|-5--5-5-5-5-|-5---5--|
|---------------|------------|------------|------------||---------------|------------|------------|------------||---------------|------------|------------|------------||---------------|------------|------------|------------||-0--0--0-0-0-0-|-0--0-0-0-0-|-0--0-0-0-0-|-0--0-0-0-0-||-0--0--0-0-0-0-|-0--0-0-0-0-|-0--0-0-0-0-|-0--0-0-0-0-|
|---------------|------------|------------|------------||---------------|------------|------------|------------||---------------|------------|------------|------------||-7--7--7-7-7-6-|-6--6-6-6-4-|-4--4-4-4-4-|-4--4-4-4-4-||-4--4--4-4-4-2-|-2--2-2-2-0-|-0--0-0-0-0-|-0--0-0-0-0-||-4--4--4-4-4-2-|-2--2-2-2-0-|-0--0-0-0-0-|-0--0-0-0-0-|
|----------------------|----------------|-----------------|----------------||----------------------|----------------|-----------------|----------------||-11---11--11-11-11-13-|-13-13-13-13-14-|-14--14-14-14-14-|-14-14-14-14-14-||----------------------|----------------|-----------------|----------------||-9----9---9--9--9--11-|-11-11-11-11-12-|-12--12-12-12-12-|-12-12-12-12-12-||----------------------|----------------|-----------------|----------------|
|---------------|------------|------------|------------||---------------|------------|------------|------------||---------------|------------|------------|------------||-7--7--7-7-7-6-|-6--6-6-6-4-|-4--4-4-4-4-|-4--4-4-4-4-||-4--4--4-4-4-2-|-2--2-2-2-0-|-0--0-0-0-0-|-0--0-0-0-0-||-4--4--4-4-4-2-|-2--2-2-2-0-|-0--0-0-0-0-|-0--0-0-0-0-|
|---------------------||---------------------||-11-11-11-11---11-11-||---------------------||-9--9--9--9----9--9--||---------------------|
|-------------------------|-------------------------|---------------------||-------------------------|-------------------------|---------------------||-14-------10-------12----|----14-------12----10----|-12-------10-------9-||----12-12----12-12----12-|-12----12-12----12----12-|----10-10----10-10---||-------------------------|-------------------------|---------------------||-------------------------|-------------------------|---------------------|
|-------------------|-------------------||-------------------|-------------------||-10-----9-----10---|---12-----10---9---||----8-8---8-8----8-|-8----8-8----8---8-||-------------------|-------------------||-------------------|-------------------|
|--------------------------10-12-13--18-17-15----------------------------||-----------------10-11-13--------------------18-17-15-------------------||---------9-10-12--------------------------------------17-15-14----------||-8-10-12-------------------------------------------------------17-15-14-||------------------------------------------------------------------------||------------------------------------------------------------------------|
|-------------------------|-------------------------|---------------------||-------------------------|-------------------------|---------------------||-14-------10-------12----|----14-------12----10----|-12-------10-------9-||----12-12----12-12----12-|-12----12-12----12----12-|----10-10----10-10---||-------------------------|-------------------------|---------------------||-------------------------|-------------------------|---------------------|
|-------------------|-------------------||-------------------|-------------------||-10-----9-----10---|---12-----10---9---||----8-8---8-8----8-|-8----8-8----8---8-||-------------------|-------------------||-------------------|-------------------|
|--------------------------10-12-13--18-17-15----------------------------||-----------------10-11-13--------------------18-17-15-------------------||---------9-10-12--------------------------------------17-15-14----------||-8-10-12-------------------------------------------------------17-15-14-||------------------------------------------------------------------------||------------------------------------------------------------------------|X2
|-17----------------17-15----15---------15----------------13---------------||----18-15--15-17-18-----18----18-15------17-13---13-15-17--17-15-17-15-13-||--------------------------------------------------------------------------||--------------------------------------------------------------------------||--------------------------------------------------------------------------||--------------------------------------------------------------------------|
|-13----------------12----------------18--------------18------18---18-||----15-11--11-13-15--15-13-15-13-11----18-15-18-15-18---18-15---15---||---------------------------------------------------------------------||---------------------------------------------------------------------||---------------------------------------------------------------------||---------------------------------------------------------------------|
|-20---------------20---------------||----20-17-20-17-20--20-17-20-17-20-||-----------------------------------||-----------------------------------||-----------------------------------||-----------------------------------|
|-17----------------17-15----15---------15----------------13---------------||----18-15--15-17-18-----18----18-15------17-13---13-15-17--17-15-17-15-13-||--------------------------------------------------------------------------||--------------------------------------------------------------------------||--------------------------------------------------------------------------||--------------------------------------------------------------------------|
|-13----------------12----------------||----15-11--11-13-15--15-13-15-13-11--||-------------------------------------||-------------------------------------||-------------------------------------||-------------------------------------|
|-------------13-18-13----------------------15-20-15----------||-----------15--------15------------------17--------17--------||--------15-------------15--------------17------------17------||---12-15-----------------15-12----14-17----------------17-14-||-13-----------------------------15---------------------------||-------------------------------------------------------------|
|-------------------------------------------------||-------------------------------------------------||-11-11-11-11-11-11-11-11-11-11-11-11-11-11-11-11-||-------------------------------------------------||-9--9--9--9--9--9--9--9--9--9--9--9--9--9--9--9--||-------------------------------------------------|
|-------------------------------------------------||-------------------------------------------------||-13-13-13-13-13-13-13-13-13-13-13-13-13-13-13-13-||-------------------------------------------------||-11-11-11-11-11-11-11-11-11-11-11-11-11-11-11-11-||-------------------------------------------------|
|---------------------------------------------------||---------------------------------------------------||-14-14-14-14-14-14-14-14-14-14-14-14-14-14--13-13--||---------------------------------------------------||-12-12-12-12-12-12-12-12-12-12-12-12-12-12--11-11--||---------------------------------------------------|
|-------------------------|-------------------------||-------------------------|-------------------------||-14-14-14-14-14-14-14-14-|-16-16-16-16-16-16-16-16-||-------------------------|-------------------------||-12-12-12-12-12-12-12-12-|-14-14-14-14-14-14-14-14-||-------------------------|-------------------------|
|-------------------------|-------------------------||-------------------------|-------------------------||-19-19-19-19-19-19-19-19-|-19-19-19-19-19-19-19-19-||-------------------------|-------------------------||-17-17-17-17-17-17-17-17-|-17-17-17-17-17-17-17-17-||-------------------------|-------------------------|
|-------------------------|-------------------------||-------------------------|-------------------------||-18-18-18-18-18-18-18-18-|-18-18-18-18-18-18-13-13-||-------------------------|-------------------------||-16-16-16-16-16-16-16-16-|-16-16-16-16-16-16-11-11-||-------------------------|-------------------------|
|---------------------------------------------------||---------------------------------------------------||-14-14-14-14-14-14-14-14-14-14-14-14-14-14--13-13--||---------------------------------------------------||-12-12-12-12-12-12-12-12-12-12-12-12-12-12--11-11--||---------------------------------------------------|
|-------------------------|-------------------------||-------------------------|-------------------------||-14-14-14-14-14-14-14-14-|-16-16-16-16-16-16-16-16-||-------------------------|-------------------------||-12-12-12-12-12-12-12-12-|-14-14-14-14-14-14-14-14-||-------------------------|-------------------------|
|-------------------------------------------------||-------------------------------------------------||-11-11-11-11-11-11-11-11-11-11-11-11-11-11-11-11-||-------------------------------------------------||-9--9--9--9--9--9--9--9--9--9--9--9--9--9--9--9--||-------------------------------------------------|
|-------------------------------------------------||-------------------------------------------------||-13-13-13-13-13-13-13-13-13-13-13-13-13-13-13-13-||-------------------------------------------------||-11-11-11-11-11-11-11-11-11-11-11-11-11-11-11-11-||-------------------------------------------------|
|---------------------------------------------------||---------------------------------------------------||-14-14-14-14-14-14-14-14-14-14-14-14-14-14--13-13--||---------------------------------------------------||-12-12-12-12-12-12-12-12-12-12-12-12-12-12--11-11--||---------------------------------------------------|
|-------------------------|-------------------------||-------------------------|-------------------------||-14-14-14-14-14-14-14-14-|-16-16-16-16-16-16-16-16-||-------------------------|-------------------------||-12-12-12-12-12-12-12-12-|-14-14-14-14-14-14-14-14-||-------------------------|-------------------------|
|-------------------------|-------------------------||-------------------------|-------------------------||-19-19-19-19-19-19-19-19-|-19-19-19-19-19-19-19-19-||-------------------------|-------------------------||-17-17-17-17-17-17-17-17-|-17-17-17-17-17-17-17-17-||-------------------------|-------------------------|
|-------------------------|-------------------------||-------------------------|-------------------------||-18-18-18-18-18-18-18-18-|-18-18-18-18-18-18-13-13-||-------------------------|-------------------------||-16-16-16-16-16-16-16-16-|-16-16-16-16-16-16-11-11-||-------------------------|-------------------------|
|---------------------------------------------------||---------------------------------------------------||-14-14-14-14-14-14-14-14-14-14-14-14-14-14--13-13--||---------------------------------------------------||-12-12-12-12-12-12-12-12-12-12-12-12-12-12--11-11--||---------------------------------------------------|
|-------------------------|-------------------------||-------------------------|-------------------------||-14-14-14-14-14-14-14-14-|-16-16-16-16-16-16-16-16-||-------------------------|-------------------------||-12-12-12-12-12-12-12-12-|-14-14-14-14-14-14-14-14-||-------------------------|-------------------------|
|------||------||------||-0--0-||-0--0-||-0--0-|
|-----------------------------------------||-----------------------------------------||-11---11------13--13-----14---14---------||-------------------------------------12\-||-9----9-------11--11-----12---12-----12\-||-------------------------------------12\-|
|----------------------------|---------------|---------------||----------------------------|---------------|---------------||----------------------------|---------4-----|-----4---------||-7--7--7-7-7-6-|-6--6-6-6-4-|---7-----7---4-|--7----7---4---||-4--4--4-4-4-2-|-2--2-2-2---|---------------|---------------||-4--4--4-4-4-2-|-2--2-2-2---|-0---0-----0---|-0--0----0-----|
|-----------------|---------------|---------------|---------------||-----------------|---------------|---------------|---------------||---------4-------|-------4-------|-------4-------|-------4-------||-4---7-----7---4-|---7-----7---4-|---7-----7---4-|---7-----7---4-||-----------------|---------------|---------------|---------------||---0---0-----0---|-2---2-----2---|-4---4-----4---|-4---4-----4---|
|-----------------|---------------|---------------|---------------||-----------------|---------------|---------------|---------------||-----6---7-6-4---|---4---6-4-----|-------4-------|-------4-------||-7-------------6-|-----------6-4-|---7-----7---4-|---7-----7---4-||-----------------|---------------|---------------|---------------||---4---4---------|-2---2---------|-0---0-----0---|-0---0-----0---|
|--------------------------------------------------------------------------||------10--12-10----------12--14-12---------14--15-14-------14--15-14------||-11-11--11-------11-13-13--13-----13-14-14--14-----14-14-14-14------14-14-||--------------------------------------------------------------------------||--------------------------------------------------------------------------||--------------------------------------------------------------------------|
|------------------------------------------------------------------------||------14--15-14--------12--14-12--------10--12-10--------10--12-10------||-14-14--14-----14-13-13--13-----13-11-11--11-----11-11-11--11-----11-11-||------------------------------------------------------------------------||------------------------------------------------------------------------||------------------------------------------------------------------------|
|------------------------------------------------------------------||------------------------------------------------------------------||---------4--------------6---------------7----------------7--------||-4-4-7-4---7-4-5--6-9-6---9-6-7--7-11-7---11-7-7--7-11-7---11-7-7-||------------------------------------------------------------------||------------------------------------------------------------------|
|---------------|------------|------------|------------||---------------|------------|------------|------------||---------------|------------|------------|------------||-7--7--7-7-7-6-|-6--6-6-6-4-|-4--4-4-4-4-|-4--4-4-4-4-||-4--4--4-4-4-2-|-2--2-2-2-0-|-0--0-0-0-0-|-0--0-0-0-0-||-4--4--4-4-4-2-|-2--2-2-2-0-|-0--0-0-0-0-|-0--0-0-0-0-|
|----------------------------------------||----------------------------------------||-11-11-11--13-13-13--14-14-14--14-14-14-||----------------------------------------||-9--9--9---11-11-11--12-12-12--12-12-12-||----------------------------------------|
|-------------------------------------------||-------------------------------------------||-16-16-16---19-19-19---19-19-19---19-19-19-||-------------------------------------------||-14-14-14---16-16-16---17-17-17---17-17-17-||-------------------------------------------|
|----------------------------------|----------||----------------------------------|----------||-7-----7-----7------7-----7-------|-----7--7-||----------------------------------|----------||---5-5---5-5---5--5---5-5---5-5-5-|-----5--5-||----------------------------------|----------|
Please rate this tab:
x1.0