David Ryan Harris - All I Need tab

Song: All I Need
Artist: David Ryan Harris
Album: The Bittersweet/Soulstice
Tab: I tabbed the whole song by ear/video. This is based off one of his live
videos on Youtube. A section is missing. Please credit me. Thank you!

~ en.cat@live.com

Tuning: Half-step down

e   --->  e#
B   --->  B#
G   --->  G#
D   --->  D#
A   --->  A#
E   --->  E#

Intro:

------------12-9--------------------------------12-9---------------9-|9--10-12-10-------9--10-12-10-9--7--9--10-12-10------9--10-12-10-9---|---------------------------------------------------------------------|---------------------------------------------------------------------|---------------------------------------------------------------------|---------------------------------------------------------------------|
Verse:
----------------------------|------------------2--22--22-|------------------2--22--22-|------------------0--00--00-|2--4--5--------2--2--22--22-|---------2--5---------------|
----------------------------|------------------2--22--22-|------------------2--22--22-|------------------0--00--00-|2--4--5-----4--2--2--22--22-|---------2------------------|
----------------------------|------------------2--22--22-|------------------2--22--22-|---------2--4-----0--00--00-|2--4--5--------2--2--22--22-|----------------------------|
Or even ...
---7-----7-----7-----7-----9-10-9-|10----10----10----10----10--------|----------------------------------|----------------------------------|----------------------------------|----------------------------------|
Chorus:
4--5--9--9--|5--5--7--10-|4--6--7--9--|6--7--7--9--|X--X--X--X--|4--5--7--10-|
Bridge: - - - - - - - Bridge (2):
--------------|3--5--3-------|4--6--4-------|5--6--5-------|5--4--5--5--2-|3-----3--2--0-|
Bridge (3):
---9-----9-----7-----7-----7-----7-----5--5-|---10----10----10----10----5-----5-----2--2-|7-----7-----7-----7-----6-----6-----2-------|--------------------------------------------|--------------------------------------------|--------------------------------------------|
---------------------------------------------|------3--------------------3--2--------------|---------------2--4--------4--2---------6--4-|---4--------2-----------2-----------4--------|2--------2-----------0-----------5-----------|---------------------------------------------|
Outro:
-----------|3--3--2--2-|2--4--2--2-|4--2--2--2-|2--2--0--X-|---------2-|
Tap to rate this tab
 
# A B C D E F G H I J K L M N O P Q R S T U V W X Y Z