Dead Kennedys - Soup Is Good Food tab

#----------------------------------PLEASE NOTE---------------------------------#
#This file is the author's own work and represents their interpretation of the #
#song. You may only use this file for private study, scholarship, or research. #
#------------------------------------------------------------------------------#

SOUP IS GOOD FOOD
As recorded by Dead Kennedys
(From the 1985 Album FRANKENCHRIST)


Transcribed by Jon 

 Words by Jello Biafra Music by Dead Kennedys

 

Gtr I (E A D G B E) - 'East Bay Ray'
Gtr II (E A D G B E) - 'East Bay Ray'


   Intro
    Q=166
           To Coda
    N.C.
   4/4
    Gtr I
                   7x
||-----2-1---------||----2-1---0-1-2-|---------------|-------------------|||o-0------2------o||-0------2-------|---------------|-------------------|||-----------2--2--||----------------|-2----2--4-3-2-|-(2)-5-4-2----2-3--|||-----------------||----------------|----4----------|------------4------|||o---------------o||----------------|---------------|-------------------|||-----------------||----------------|---------------|-------------------|
|
| Gtr II| 7x||-----------------||----------------|---------------|-------------------|||o---------------o||----------------|---------------|-------------------|||-----------------||----------------|---------------|-------------------|||-----------------||----------------|---------------|-------------------|||o---------------o||----------------|---------------|-------------------|||--7------9-------||----------------|---------------|-------------------|
|----------3---3-|-5b6--5-5--3---3-||---3-4-5----5---|-------------5---||-4--------------|-----------------||----------------|-----------------||----------------|-----------------||----------------|-----------------|
|-5b6-5b6-5b6-5-5b6-5pb6-5pb6-5-|-5b6==5-5-5r5-3---3--||-------------------------------|----------------5----||-------------------------------|---------------------||-------------------------------|---------------------||-------------------------------|---------------------||-------------------------------|---------------------|
|-----------------|--------------2-|----2-1--------|----2-1---0-0-2--||-5-4-3-0-3-5-3-0-|------------0---|-0------2------|-0------2--------||-----------------|-3-2---2--2-----|----------2--2-|-----------------||-----------------|-----4----------|---------------|-----------------||-----------------|----------------|---------------|-----------------||-----------------|----------------|---------------|-----------------|
|----2-1---------|----2-1---0-0-2----|||-0------2-----0-|-0------2----------|||----------2-2---|-------------------|||----------------|-------------------|||----------------|-------------------|||----------------|-------------------||
Verse Pre-Chorus A B D# D 16x 3x||-----2-1---------||-||--5---7----(7)-|-11---10----(10)-----||||o-0------2------o||-||o-5---7----(7)-|-11---10----(10)----o||||-----------2--2--||-||--6---8----(8)-|-12---11----(11)-----||||-----------------||-||--7---9----(9)-|-13---12----(12)-----||||o---------------o||-||o-7---9----(9)-|-13---12----(12)----o||||-----------------||-||--5---7----(7)-|-11---10----(10)-----||
A B D|-5---7----(7)-|-10--10------||-5---7----(7)-|-10--10------||-6---8----(8)-|-11--11------||-7---9----(9)-|-12--12------||-7---9----(9)-|-12--12------||-5---7----(7)-|-10--10------|
Chorus D.C. B C# D A# 3x||--7-----9----|-10---6---(6)---||-7--------|----------|||o-7-----9----|-10---6---(6)--o||-7--------|----------|||--8----10----|-11---7---(7)---||-8--------|----------|||--9----11----|-12---8---(8)---||-9--------|----------|||o-9----11----|-12---8---(8)--o||-9--------|----------|||--7-----9----|-10---6---(6)---||-7--------|----------|
Interlude & N.C.|-----14-13-------------|-----14-13----12-12-14-||-12--------14-------12-|-12--------14----------||--------------14-14----|-----------------------||-----------------------|-----------------------||-----------------------|-----------------------||-----------------------|-----------------------|
|-----14-13-------------|-----14-13----12-14-13--||-12--------14-------12-|-12--------14-----------||--------------14-14----|------------------------||-----------------------|------------------------||-----------------------|------------------------||-----------------------|------------------------|
|-12-----12--13-14-5-|-(5)----(5)---5---||-----14-------------|------------7---7-||--------------------|------------------||--------------------|------------------||--------------------|------------------||--------------------|------------------|
|-8-7-5---5-6--5-|-(5)-14-12-12--11-12-11--||-------7--------|-------------------------||----------------|-------------------------||----------------|-------------------------||----------------|-------------------------||----------------|-------------------------|
|-12-11-12-11-12-11-12-11-|-13-13-13-13-13-13-13-13-||-------------------------|-------------------------||-------------------------|-------------------------||-------------------------|-------------------------||-------------------------|-------------------------||-------------------------|-------------------------|
|-14-14-14-14-14-14-12----|-12----||----------------------14-|-------||-------------------------|-------||-------------------------|-------||-------------------------|-------||-------------------------|-------|
|----2-1--------|----2-1---------|----2-1-------------|----2-1---0-0-2--||-0------2------|-0------2-----0-|-0------2---1b2r(1)-|-0------2--------||----------2--2-|----------2-2---|----------2---------|-----------------||---------------|----------------|--------------------|-----------------||---------------|----------------|--------------------|-----------------||---------------|----------------|--------------------|-----------------|
Verse Pre-Chorus A B D# D 8x 3x||-----2-1---------||-||--5---7----(7)-|-11---10----(10)-----||||o-0------2------o||-||o-5---7----(7)-|-11---10----(10)----o||||-----------2--2--||-||--6---8----(8)-|-12---11----(11)-----||||-----------------||-||--7---9----(9)-|-13---12----(12)-----||||o---------------o||-||o-7---9----(9)-|-13---12----(12)----o||||-----------------||-||--5---7----(7)-|-11---10----(10)-----||
A B D|-5---7----(7)-|-10--10------||-5---7----(7)-|-10--10------||-6---8----(8)-|-11--11------||-7---9----(9)-|-12--12------||-7---9----(9)-|-12--12------||-5---7----(7)-|-10--10------|
Chorus B C# D A# B N.C. 3x||--7-----9----|-10---6----(6)--||-7--------|------------------|||o-7-----9----|-10---6----(6)-o||-7--------|---13--12-10------|||--8----10----|-11---7----(7)--||-8--------|-------------11-9-|||--9----11----|-12---8----(8)--||-9--------|---10---9--7------|||o-9----11----|-12---8----(8)-o||-9--------|--------------9-7-|||--7-----9----|-10---6----(6)--||-7--------|------------------|
Interlude|---------------------|-----------------------||-----------10--10-10-|-14-14-14-12--14-12-10-||-11--11-11-----------|-----------------------||------------7---7--7-|-11-11-11--9--11--9--7-||--9---9--9-----------|-----------------------||---------------------|-----------------------|
|---------------------|-/12-----------------||-----------10--10-10-|-------12--14-12-10--||-11--11-11-----------|--/9-----------------||------------7---7--7-|--------9--11--9--7--||--9---9--9-----------|---------------------||---------------------|---------------------|
|---------------------|-----------------------|-----------|-----||-----------10--10-10-|-14-14-14-12--14-12-10-|-----------|-----||-11--11-11-----------|-----------------------|-11--------|-----||------------7---7--7-|-11-11-11--9--11--9--7-|-----------|-----||--9---9--9-----------|-----------------------|--9--------|-----||---------------------|-----------------------|-----------|-----|
B F B A# B F B A#|-2---1-(1)----|-(1)------2-1-|-2-2-2-1-(1)----|-(1)------2-1--||-4---1-(1)----|-(1)------4-3-|-4-4-4-1-(1)----|-(1)------4-3--||-4---2-(2)----|-(2)------4-3-|-4-4-4-2-(2)----|-(2)------4-3--||-4---3-(3)----|-(3)------4-3-|-4-4-4-3-(3)----|-(3)------4-3--||-2---3-(3)----|-(3)------2-1-|-2-2-2-3-(3)----|-(3)------2-1--||-----1-(1)----|-(1)----------|-------1-(1)----|-(1)-----------|
B F B A# B F B A# B F B A# B F|-2-2-2-1-(1)--2-1-|-2-2-2-1-(1)--2-1-|-2-2-2-1-(1)--2-1-|-2-2-2-1-----||-4-4-4-1-(1)--4-3-|-4-4-4-1-(1)--4-3-|-4-4-4-1-(1)--4-3-|-4-4-4-1-----||-4-4-4-2-(2)--4-3-|-4-4-4-2-(2)--4-3-|-4-4-4-2-(2)--4-3-|-4-4-4-2-----||-4-4-4-3-(3)--4-3-|-4-4-4-3-(3)--4-3-|-4-4-4-3-(3)--4-3-|-4-4-4-3-----||-2-2-2-3-(3)--2-1-|-2-2-2-3-(3)--2-1-|-2-2-2-3-(3)--2-1-|-2-2-2-3-----||-------1-(1)------|-------1-(1)------|-------1-(1)------|-------1-----|
Verse|-----||-----||-----||-----||-----||-----|
Pre-Chorus N.C. A B D# D 8x 7x||-----2-1---------||-||--5---7----(7)-|-11---10----(10)-----||||o-0------2------o||-||o-5---7----(7)-|-11---10----(10)----o||||-----------2--2--||-||--6---8----(8)-|-12---11----(11)-----||||-----------------||-||--7---9----(9)-|-13---12----(12)-----||||o---------------o||-||o-7---9----(9)-|-13---12----(12)----o||||-----------------||-||--5---7----(7)-|-11---10----(10)-----||
A B D|-5---7----(7)-|-10--10------||-5---7----(7)-|-10--10------||-6---8----(8)-|-11--11------||-7---9----(9)-|-12--12------||-7---9----(9)-|-12--12------||-5---7----(7)-|-10--10------|
Chorus B C# D A# B 10x||--7-----9----|-10---6----(6)--||-7--------|-----|||o-7-----9----|-10---6----(6)-o||-7--------|-----|||--8----10----|-11---7----(7)--||-8--------|-----|||--9----11----|-12---8----(8)--||-9--------|-----|||o-9----11----|-12---8----(8)-o||-9--------|-----|||--7-----9----|-10---6----(6)--||-7--------|-----|
Outro B F B F|-2-2-2-1-(1)----|-(1)--------|-2-2-2-1-(1)----|-(1)----||-4-4-4-1-(1)----|-(1)--------|-4-4-4-1-(1)----|-(1)----||-4-4-4-2-(2)----|-(2)--------|-4-4-4-2-(2)----|-(2)----||-4-4-4-3-(3)----|-(3)--------|-4-4-4-3-(3)----|-(3)----||-2-2-2-3-(3)----|-(3)--------|-2-2-2-3-(3)----|-(3)----||-------1-(1)----|-(1)--------|-------1-(1)----|-(1)----|
N.C. 13x||--------------------||----------------2-|--------*|||o------------------o||------------------|--------*|||---------------4-4--||--------------4---|-4------*|||--------------------||------------------|--------*|||o------------0-2-2-o||------------0-2---|-2------*|||--1-1-1-1-1---------||-1-1-1-1-1--------|--------*|
-------------------------------------------------------------------------------- Tablature Legend ---------------- h - hammer-on p - pull-off b - bend pb - pre-bend r - bend release (if no number after the r, then release immediately) /\ - slide into or out of (from/to "nowhere") s - legato slide S - shift slide - natural harmonic [n] - artificial harmonic n(n) - tapped harmonic ~ - vibrato tr - trill T - tap TP - trem. picking PM - palm muting \n/ - tremolo bar dip; n = amount to dip \n - tremolo bar down n/ - tremolo bar up /n\ - tremolo bar inverted dip = - hold bend; also acts as connecting device for hammers/pulls <> - volume swell (louder/softer) x - on rhythm slash represents muted slash o - on rhythm slash represents single note slash Misc Legend ----------- | - bar || - double bar ||o - repeat start o|| - repeat end *| - double bar (ending) : - bar (freetime) $ - Segno & - Coda Tempo markers - = BPM(8/16=s8/s16), where s8 = swing 8ths, s16 = swing 16ths
Tap to rate this tab
 
# A B C D E F G H I J K L M N O P Q R S T U V W X Y Z