Leeches tab with lyrics by Deaf Havana - Easy chords and tabs for guitar

Deaf Havana – Leeches tab

Leeches - Deaf Havana

Tuning: Drop D

Intro/Verse
(0:00-0:33)

|-------------------|---------||-------------------|----5----||-4------6----------|--6----6-||-4-x16--4-x16------|---------||-------------------|---------| x6|-------------------|---------| (Optional) Listen to the song
Pre-Chorus (0:34-0:35)
|------------||------------||------------||------------||------7-4---||-7-6--------|
Chorus (0:36-0:58)
|-------------------| |--------------------||-------------------| |--------------------||-7-----------------| |-7------------------||-7-------4---------| |-7------4-----2-----||-5-x16---4---------| x3 |-5-x16--4-----2-----||---------4-x16-----| |--------4-x8--2-x8--|
(The last part of the chorus) Bridge (0:59-1:08)
|------------------||-2----------------||------------------||-----4-4---2-4----||------------------| x8|------------------|
Verse (1:09-1:30)
|-------------------|---------||-------------------|----5----||-4------6----------|--6----6-||-4-x16--4-x16------|---------||-------------------|---------| x4|-------------------|---------|
Pre-Chorus (1:31-1:32)
|------------||------------||------------||------------||------7-4---||-7-6--------|
Chorus (1:33-1:54)
|-------------------| |--------------------||-------------------| |--------------------||-7-----------------| |-7------------------||-7-------4---------| |-7------4-----2-----||-5-x16---4---------| x3 |-5-x16--4-----2-----||---------4-x16-----| |--------4-x8--2-x8--|
(The last part of the chorus) Middle-Part (1:55-2:16) 1st Guitar
|-------|------------||-------|------------||-6-6-x-|--6-6-6-x---||-x-x-x-|--x-x-x-x---||-4-4-x-|--4-4-4-x---| x30 |-------|------------|
(This is played throughout to 2:16, while the 2nd Guitar is playing.) 2nd Guitar (comes in at 2:06) This part is actually played with the "Delay" effect.
|-------------------------------------------------------------||-----------------10-(10)--9-(9)------------------------------||-11-(11)--9-(9)------------------11-(11)------------------9--||------------------------------------------11-(11)--9-(9)-----||-------------------------------------------------------------| x2|-------------------------------------------------------------|
The Bending (2:17-2:18)
|------------------||------------------||-11-11-11--11b13--||------------------||------------------||------------------|
Chorus (2:21-2:41) This one is a little different from the other ones.
|-------------------| |-------------||-------------------| |-------------||---------7---------| |-------------||-4-------7---------| |-4-----2-----||-4-------5-x16-----| x3 |-4-----2-----||-4-x16-------------| |-4-x8--2-x8--|
(Then you jump right to this one after playing the other part 3 times.) Outro (2:42-2:53)
|-------------------|---------||-------------------|----5----||-4------6----------|--6----6-||-4-x16--4-x16------|---------||-------------------|---------| x2|-------------------|---------| (Optional) Listen to the song
Tabs made by Stianerdal
Please rate this tab:
x1.0