Babylon tab with lyrics by Deathstars for guitar @ Guitaretab

Deathstars – Babylon tab

===========================================================

                   Babylon

===========================================================

By:  Deathstars
Album: Night Electric Night

Tabbed by: John Moores
mooresjw@email.uc.edu



Drop C Tuning (CGCFAD)

* = Palm Mute
@ = Pinched harmonic
x = muted

Intro/Main Riff
0:15

|-------------------------------------------||-------------------------------------------||---------4---------------------------------||--1---4--4---6------1----4--3-3-4--2-------||--1---4--2---6------1----4--3-3-2--2-------||--1---4------6------1----4--3-3----2-------|
|-------------------------------------------||-------------------------------------------||---------4---------------------------------||--1---4--4---6------1----4--3-3-4-4-4--4-4-||--1---4--2---6------1----4--3-3-2-2-2--2-2-||--1---4------6------1----4--3-3------------|
Verse 1 0:30
|-------------------------------------------------||-------------------------------------------------||----Nothing is played during---------------------||-----------this part-----------------------------||-------------------------------------------------||-------------------------------------------------|
0:45 0:48 0:52 0:56|-------------------------------------------------||-------------------------------------------------||-------------------------------------------------||--1--1-------1--1--------1--1---------1--1-------||--1--1-------1--1--------1--1---------1--1-------||--1--1-------1--1--------1--1---------1--1-------|
Pre-chorus 0:58
|-------------------------------------------------||-------------------------------------------------||-------------------------------------------------||---6----9---11----6----8---9----11----6----8-----||---6--8-9---11----6----8---9----11----6----8-----||---6--8-9---11----6----8---9----11----6----8-----|
Chorus/Main Riff 1:14
|-------------------------------------------||-------------------------------------------||---------4---------------------------------||--1---4--4---6------1----4--3-3-4--2-------||--1---4--2---6------1----4--3-3-2--2-------||--1---4------6------1----4--3-3----2-------|
|-----------------------------------------------||-----------------------------------------------||---------4-------------------------------------||--1---4--4---6------1----4--3-3-9--9---9---6---||--1---4--2---6------1----4--3-3-9--9---9-8-6---||--1---4------6------1----4--3-3-9--9---9-8-6---|
Verse 1:32
|-------------------------------------------------||-------------------------------------------------||----Nothing is played during---------------------||-----------this part-----------------------------||-------------------------------------------------||-------------------------------------------------|
1:46 1:50 1:54 1:58|-------------------------------------------------||-------------------------------------------------||-------------------------------------------------||--1--1-------1--1--------1--1---------1--1-------||--1--1-------1--1--------1--1---------1--1-------||--1--1-------1--1--------1--1---------1--1-------|
Pre-chorus 2:00
|-------------------------------------------------||-------------------------------------------------||-------------------------------------------------||---6----9---11----6----8---9----11----6----8-----||---6--8-9---11----6----8---9----11----6----8-----||---6--8-9---11----6----8---9----11----6----8-----|
Chorus/Main Riff 2:17
|-------------------------------------------||-------------------------------------------||---------4---------------------------------||--1---4--4---6------1----4--3-3-4--2-------||--1---4--2---6------1----4--3-3-2--2-------||--1---4------6------1----4--3-3----2-------|
|-----------------------------------------------||-----------------------------------------------||---------4-------------------------------------||--1---4--4---6------1----4--3-3-9--9---9---6---||--1---4--2---6------1----4--3-3-9--9---9-8-6---||--1---4------6------1----4--3-3-9--9---9-8-6---|
Bridge (continuous right from chorus)|-------------------------------------------------||-------------------------------------------------||-------------------------------------------------||--8--9-8-7---8----6-4-3---8---9-8-7---8----------||--8--9-8-7---8----6-4-3---8---9-8-7---8----------||--8--9-8-7---8----6-4-3---8---9-8-7---8---4--3---|
Pre-chorus 3:02
|-----------------------||-----------------------||-----------------------||---9--11----6----8-----| x2|---9--11----6----8-----||---9--11----6----8-----|
3:28|-------------------------------------------------||-------------------------------------------------||-------------------------------------------------||---1-3-4--3-4-6--4-6-8--8-9-11-\-----------------||---1-3-4--3-4-6--4-6-8--8-9-11-\-----------------||---1-3-4--3-4-6--4-6-8--8-9-11-\-----------------|
Chorus/Main Riff 3:32
|-------------------------------------------||-------------------------------------------||---------4---------------------------------||--1---4--4---6------1----4--3-3-4--2-------||--1---4--2---6------1----4--3-3-2--2-------||--1---4------6------1----4--3-3----2-------|
|-------------------------------------------||-------------------------------------------||---------4---------------------------------||--1---4--4---6------1----4--3-3-4-4-4--4-4-||--1---4--2---6------1----4--3-3-2-2-2--2-2-||--1---4------6------1----4--3-3------------|
|-------------------------------------------||-------------------------------------------||---------4---------------------------------||--1---4--4---6------1----4--3-3-4--2-------||--1---4--2---6------1----4--3-3-2--2-------||--1---4------6------1----4--3-3----2-------|
|-------------------------------------------||-------------------------------------------||---------4---------------------------------||--1---4--4---6------1---4--6-8-9---8-9-6-1-||--1---4--2---6------1---4--6-8-9---8-9-6-1-||--1---4------6------1---4--6-8-9---8-9-6-1-|
Please rate this tab:
x1.0