Decapitated - Eternity Too tab

Band: Decapitated
Album: Nihility
Song: Eternity Too Short
Record Label: Earache
Tuning: D G C F A D


h - hammer on
p - pull off
r - release bend
/ - slide up
\ - slide down
~ - vibrato
. - palm mute

tabbed by Pestilence_God


1.


------------------------------------------------------------------------------------------------------------------------------------------------------------------h3---------------------------------5/6---------2--0-h1-4-----333--------111--------333-3/4----3/4--0-------2--111---3333-222---222-1111-------000-3/4- . . .......... ......... ....... ...
-------------------------------------------------------------------------------------------------------------------------------------------------------------------3--------------------------------------------------1---4----333--------111--------333-444-2--00000000---0-2-111---3333-222---222-1111--------0- ........ . .......... ......... ....... ...
------------------------------------------------------------------------------------------------------------------------------------------------------------------h3---------------------------------5/6---------2--0-h1-4-----333--------111--------333-3/4----3/4--0-------2--111---3333-222---222-1111-------000-3/4- . . .......... ......... ....... ...
-------------------------------------------------------------------------------------------------------------------------------------------------------------------3--------------------------------------------------1---4----333--------111--------333-444-2--00000000---0-2-111---3333-222---222-1111--------0- ........ . .......... ......... ....... ...
------------------------------------------------------------------------------------------------------------------------------------------------------------------h3---------------------------------5/6---------3--0-h1-4-----333--------111--------333-3/4----3/4--1-------2--111---3333-222---222-1111-------000-3/4- . . .......... ......... ....... ...
----------------------------------------------------------------------------------------------------------------------------------------------------------------------------------3-------------------------------------------------------1---4----333--------111--------333333444444-2--00000000---0-2-111---3333-222---222-111--------------0- ........ . .......... ......... ... ............
------------------------------------------------------------------------------------------------------------------------------------------------------------------h3---------------------------------5/6---------2--0-h1-4-----333--------111--------333-3/4----3/4--0-------2--111---3333-222---222-1111-------000-3/4- . . .......... ......... ....... ...
-------------------------------------------------------------------------------------------------------------------------------------------------------------------3--------------------------------------------------1---4----333--------111--------333-444-2--00000000---0-2-111---3333-222---222-1111--------0- ........ . .......... ......... ....... ...
2.
--------------------------------------------------------------------------------3-6-p3------2-5-p2-2-5------5--1-4------4----------- . .. . ... .
2nd guitar starts on the 4th fret, repeat every four frets
until last position:------------------------------------------------------------------------------------------------------------------------------------------------------ Gtr 1----------------------12-15-12-h15-p12------------------11-14-p11--11-14----------------13~--13-12\--10-13---------13---------------------------------
--------------------------------------------------------------------------------------------------------------------------------------------- Gtr 2----------------------15-18-p15----------------------14-17-p14--14-17---------17-16~---16-15\--13-16---------16------------------------------
--------------------16----16-19/22-----------------------------------------18----18--------21---------------------------16-19--15-19----19------------19-19\15-15~--15-14\- Gtr 3-15-18-----18--------------------------------------------------------------------------------------------------------------------------------------------------------------
-------------------------------------------------------------3-3--3-3--3-3-3--4--1-1--1-1--1-1-1--2--1-1--1-1--1-1-1--2- . .
3.
-------------------------------------------------------------------------------------------------------------------------------------------------------------------------------------------------------------------------------------------------------------------------------------------3-2-3--11111111--3-2-3------------3-2-3--11111111--3-2-3--00000000--3-2-3------------3-2-3--00000000--3-2-3------------3-2-3- . . . . . . . . . . . .
-----------------------------------------------------------------------------------------------------------------------------------------------------------------------------------------------------------------------------------------------------------------------------------------------3-2-3--44444444--3-2-3-----------3-2-3--22222222--3-2-3/4--00000000--3-2-3------------3-2-3-00000000--3-2-3------------3-2-1/2- . . . . . . . . . . .
-------------------------------------------------------------------------------------------------------------------------------------------------------------------------------------------------------------------------------------------------3-2-3--11111111--3-2-3------------3-2-3--44444444--3-2-2/3--3-2-3------------3-2-3--00000000--3-2-3------------3-2-2/3- . . . . . . . . . . .
-----------------------------------------------------------------------------------------------------------------------------------------------------------------------------------------------------------------------------------------3-2-3--11111111--3-2-3------------3-2-3--22222222--5-4-3--3-2-3------------3-2-3--00000000--3-2-3------------3-2-1- . . . . . . . . .
4.
---------------------------------------------------------------------------------------------------------------------------------------------------------------------------------------------------------------------------------------------------------555-----2211----------000333222111--4433223344--111444---444------33223344- ............ .......... ............ ............
---------------------------------------------------------------------------------------------------------------------------------------------------------------------7----4------------------------6-5-4-5-6--3-6-5-4--2-3-3-3-6--000333222111--4-3-2-3-4--1-4-5-2----1-1-1-4- ............ . . . . .
-------------------------------------------------24--------23-23-23------23--------------------17-18--17-18-19--20-19--21-23-22-----------------21-22~-21--19-18-19-----19---------------------------------- Gtr 2---21----------------------------------------------------------------20-------------------------------------------------------------------------------------------------------------------------------------
5.
-------------------------------------------------------------------------------------------------------------------------------------------------------------------------3----------------------578-----------578----2-1---------------567-578---578-457-578---578-0-1-000000000000- ... ... ... ... . ............
------------------------------------------------------------------------------------------------------------------------------------------------------------------------------------------------------------------4---------------------------------578-----------578----2-2-2------------------2-2--0--457-578---578-457-578---578-0-0-2-0000000000000000-0-0--0- ... ... ... ... . . . ................ . .
-------------------------------------------------------------------------------------------------------------------------------------------------------------------------3----------------------578-----------578----2-1---------------567-578---578-457-578---578-0-1-000000000000- ... ... ... ... . ............
---------------------------------------------------------------------------------------------------------------------------------------------------------------------------------------------------4----------------------------578-----------578----2-2-2------------------2--457-578---578-457-578---578-0-0-2-0000000000000000-0- ... ... ... ... . . . ................
-------------------------------------------------------------------------------------------------------------------------------------------------------------------------3----------------------578-----------578----2-1---------------567-578---578-457-578---578-0-1-000000000000- ... ... ... ... . ............
------------------------------------------------------------------------------------------------------------------------578-----------578-2--567-578---578-457-578----0- ... ... ... ... .
6.
----------------------------------------------------------------------------------------------------------------------------------------------------------------------------------------1-----------4-------2----------------------- Gtr 1-------------1-----------3-2------2-1111------------------000011113333--2222333222--0-000--------3322335566665566- ...... ... ..
----------------------------------------------------------------------------------------------------------------------------------------------------------------------------------------1-----------4-------2--3333----------------- Gtr 2-------------1-----------3-2------2-----------------------000011113333--2222333222--0-000--------3322335566665566- ...... ... ..
----------------------------------------------------------------------------------------------------------------------------------------------------------------------------------------------------1-----------4----------------------------------- Gtr 1-------------1-----------3--77776666777766667777666644443333--000011113333--2222333222------------------------------------ ......
----------------------------------------------------------------------------------------------------------------------------------------------------------------------------------------------------1-----------4----------------------------------- Gtr 2-------------1-----------3--77776666--------------------------000011113333--2222333222-----------888877778888777755554444- ......
7.
----------------------------------------------------------------------------------------------------------------------------------------------------------------------------------------------------------------------------------------5\4-4\3---4---3--3/4-3/4-4\3-----5/6-5/6---------5\4-4\3------3\2-2\1---2---1--1/2-1/2-2\1-000-3/4-3/4-000-000-3\2-2\1-0000-3\2-2\1-0-2-0-1- ... ... ... .... . .
----------------------------------------------------------------------------------------------------------------------------------------------------------------------------------------------------------------------------------------------5\4-4\3---4---3----3/4-3/4-4\3-----5/6-5/6---------5\4-4\3------3\2-2\1---2---1-2--1/2-1/2-2\1-000-3/4-3/4-000-000-3\2-2\1-0000-3\2-2\1-0-2-0-1-0- ... ... ... .... . . .
----------------------------------------------------------------------------------------------------------------------4--------------11111----------3--000011113333-----2222333222-- ......
Repeat part 6, 4, 5, 6 and 7
Tap to rate this tab
 
# A B C D E F G H I J K L M N O P Q R S T U V W X Y Z