Deez Nuts - Party Song tab

Party Song
Deez Nuts
This Ones For You 
2010


Intro:PM PM PM PM PM PM PM PM PM PM PM PM PM PM PM PM D||--------------------------|--------------------------|A||--------------------------|--------------------------|F||--------------------------|--------------------------|C||--------------------------|--------------------------|G||--3--3--3--3--3--3--3--3--|--3--3--3--3--3--3--3--3--|C||--3--3--3--3--3--3--3--3--|--3--3--3--3--3--3--3--3--|
PM PM PM PM PM PM PM PM PM PM PM PM PM PM PM PM --------------------------|--------------------------|--------------------------|--------------------------|--------------------------|--------------------------|--------------------------|--------------------------|--8--8--8--8--8--8--8--8--|--8--8--8--8--7--7--7--7--|--8--8--8--8--8--8--8--8--|--8--8--8--8--7--7--7--7--|
PM PM PM PM PM PM PM PM PM PM PM PM PM PM PM PM --------------------------|--------------------------|--------------------------|--------------------------|--------------------------|--------------------------|--------------------------|--------------------------|--0--0--0--0--0--0--0--0--|--0--0--0--0--0--0--0--0--|--0--0--0--0--0--0--0--0--|--0--0--0--0--0--0--0--0--|
PM PM PM PM PM PM PM PM PM PM PM PM PM PM PM PM --------------------------|--------------------------|--------------------------|--------------------------|--------------------------|--------------------------|--------------------------|--------------------------|--3--3--3--3--3--3--3--3--|--8--8--8--8--7--7--7--7--|--3--3--3--3--3--3--3--3--|--8--8--8--8--7--7--7--7--|
PM PM PM PM PM PM PM PM PM PM PM PM PM PM PM PM --------------------------|--------------------------|--------------------------|--------------------------|--------------------------|--------------------------|--------------------------|--------------------------|--3--3--3--3--3--3--3--3--|--3--3--3--3--3--3--3--3--|--3--3--3--3--3--3--3--3--|--3--3--3--3--3--3--3--3--|
PM PM PM PM PM PM PM PM PM PM PM PM PM PM PM PM --------------------------|--------------------------|--------------------------|--------------------------|--------------------------|--------------------------|--------------------------|--------------------------|--8--8--8--8--8--8--8--8--|--8--8--8--8--7--7--7--7--|--8--8--8--8--8--8--8--8--|--8--8--8--8--7--7--7--7--|
PM PM PM PM PM PM PM PM PM PM PM PM PM PM PM PM --------------------------|--------------------------|--------------------------|--------------------------|--------------------------|--------------------------|--------------------------|--------------------------|--0--0--0--0--0--0--0--0--|--0--0--0--0--0--0--0--0--|--0--0--0--0--0--0--0--0--|--0--0--0--0--0--0--0--0--|
PM PM PM PM PM PM PM PM --------------------------|--------------------------|--------------------------|--------------------------|--------------------------|--------------------------|--------------------------|--------------------------|--3--3--3--3--3--3--3--3--|--8--8--8--8--7--7--7--7--|--3--3--3--3--3--3--3--3--|--8--8--8--8--7--7--7--7--|
--------------------------|--------------------------|--------------------------|--------------------------|--------------------------|--------------------------|--------------------------|--------------------------|--3--3--3--3--3--3--3--3--|--3--3--3--3--3--3--3--3--|--3--3--3--3--3--3--3--3--|--3--3--3--3--3--3--3--3--|
--------------------------|--------------------------|--------------------------|--------------------------|--------------------------|--------------------------|--------------------------|--------------------------|--8--8--8--8--8--8--8--8--|--8--8--8--8--7--7--7--7--|--8--8--8--8--8--8--8--8--|--8--8--8--8--7--7--7--7--|
--------------------------|--------------------------|--------------------------|--------------------------|--------------------------|--------------------------|--------------------------|--------------------------|--0--0--0--0--0--0--0--0--|--0--0--0--0--0--0--0--0--|--0--0--0--0--0--0--0--0--|--0--0--0--0--0--0--0--0--|
--------------------------|--------------------------|--------------------------|--------------------------|--------------------------|--------------------------|--------------------------|--------------------------|--3--3--3--3--3--3--3--3--|--8--8--8--8--7--7--7--7--|--3--3--3--3--3--3--3--3--|--8--8--8--8--7--7--7--7--|
Verse: PM PM PM PM PM PM PM PM PM PM PM PM PM PM PM PM --------------------------|--------------------------|--------------------------|--------------------------|--------------------------|--------------------------|--------------------------|--------------------------|--3--3--3--3--3--3--3--3--|--3--3--3--3--3--3--3--3--|--3--3--3--3--3--3--3--3--|--3--3--3--3--3--3--3--3--|
PM PM PM PM PM PM PM PM PM PM PM PM PM PM PM PM --------------------------|--------------------------|--------------------------|--------------------------|--------------------------|--------------------------|--------------------------|--------------------------|--3--3--3--3--3--3--3--3--|--3--3--3--3--3--3--3--3--|--3--3--3--3--3--3--3--3--|--3--3--3--3--3--3--3--3--|
PM PM PM PM PM PM PM PM PM PM PM PM PM PM PM PM --------------------------|--------------------------|--------------------------|--------------------------|--------------------------|--------------------------|--------------------------|--------------------------|--0--0--0--0--0--0--0--0--|--0--0--0--0--0--0--0--0--|--0--0--0--0--0--0--0--0--|--0--0--0--0--0--0--0--0--|
PM PM PM PM PM PM PM PM PM PM PM PM PM PM PM PM --------------------------|--------------------------|--------------------------|--------------------------|--------------------------|--------------------------|--------------------------|--------------------------|--0--0--0--0--0--0--0--0--|--8--8--8--8--8--8--8--8--|--0--0--0--0--0--0--0--0--|--8--8--8--8--8--8--8--8--|
PM PM PM PM PM PM PM PM PM PM PM PM PM PM PM PM --------------------------|--------------------------|--------------------------|--------------------------|--------------------------|--------------------------|--------------------------|--------------------------|--3--3--3--3--3--3--3--3--|--3--3--3--3--3--3--3--3--|--3--3--3--3--3--3--3--3--|--3--3--3--3--3--3--3--3--|
PM PM PM PM PM PM PM PM PM PM PM PM PM PM PM PM --------------------------|--------------------------|--------------------------|--------------------------|--------------------------|--------------------------|--------------------------|--------------------------|--3--3--3--3--3--3--3--3--|--3--3--3--3--3--3--3--3--|--3--3--3--3--3--3--3--3--|--3--3--3--3--3--3--3--3--|
PM PM PM PM PM PM PM PM PM PM PM PM PM PM PM PM --------------------------|--------------------------|--------------------------|--------------------------|--------------------------|--------------------------|--------------------------|--------------------------|--0--0--0--0--0--0--0--0--|--0--0--0--0--0--0--0--0--|--0--0--0--0--0--0--0--0--|--0--0--0--0--0--0--0--0--|
PM PM PM PM PM PM PM PM --------------------------|--------------------------|--------------------------|--------------------------|--------------------------|--------------------------|--------------------------|--------------------------|--0--0--0--0--0--0--0--0--|--8--8--8--8--8--8--8--8--|--0--0--0--0--0--0--0--0--|--8--8--8--8--8--8--8--8--|
--------------------------|--------------------------|--------------------------|--------------------------|--------------------------|--------------------------|--------------------------|--------------------------|--3--3--3--3--3--3--3--3--|--3--3--3--3--3--3--3--3--|--3--3--3--3--3--3--3--3--|--3--3--3--3--3--3--3--3--|
--------------------------|--------------------------|--------------------------|--------------------------|--------------------------|--------------------------|--------------------------|--------------------------|--3--3--3--3--3--3--3--3--|--3--3--3--3--3--3--3--3--|--3--3--3--3--3--3--3--3--|--3--3--3--3--3--3--3--3--|
--------------------------|--------------------------|--------------------------|--------------------------|--------------------------|--------------------------|--------------------------|--------------------------|--0--0--0--0--0--0--0--0--|--0--0--0--0--0--0--0--0--|--0--0--0--0--0--0--0--0--|--0--0--0--0--0--0--0--0--|
--------------------------|--------------------------|--------------------------|--------------------------|--------------------------|--------------------------|--------------------------|--------------------------|--0--0--0--0--0--0--0--0--|--8--8--8--8--8--8--8--8--|--0--0--0--0--0--0--0--0--|--8--8--8--8--8--8--8--8--|
--------------------------|--------------------------|--------------------------|--------------------------|--------------------------|--------------------------|--------------------------|--------------------------|--3--3--3--3--3--3--3--3--|--3--3--3--3--3--3--3--3--|--3--3--3--3--3--3--3--3--|--3--3--3--3--3--3--3--3--|
--------------------------|--------------------------|--------------------------|--------------------------|--------------------------|--------------------------|--------------------------|--------------------------|--3--3--3--3--3--3--3--3--|--3--3--3--3--3--3--3--3--|--3--3--3--3--3--3--3--3--|--3--3--3--3--3--3--3--3--|
--------------------------|--------------------------|--------------------------|--------------------------|--------------------------|--------------------------|--------------------------|--------------------------|--0--0--0--0--0--0--0--0--|--0--0--0--0--0--0--0--0--|--0--0--0--0--0--0--0--0--|--0--0--0--0--0--0--0--0--|
--------------------------|--------------------------|--------------------------|--------------------------|--------------------------|--------------------------|--------------------------|--------------------------|--0--0--0--0--0--0--0--0--|--8--8--8--8--8--8--8--8--|--0--0--0--0--0--0--0--0--|--8--8--8--8--8--8--8--8--|
Pre Chorus:--------------------------|--------------------------|--------------------------|--------------------------|--------------------------|--------------------------|--------------------------|--------------------------|--5--5--5--5--5--5--5--5--|--5--5--5--5--5--7-----8--|--5--5--5--5--5--5--5--5--|--5--5--5--5--5--7-----8--|
Chorus:--------------------------|-------------------|--------------------------|--------------------------|-------------------|--------------------------|--------------------------|-------------------|--------------------------|--------------------------|-------------------|--------------------------|--L--8--8--8--8--8--8--8--|--L----------------|--3--3--3--3--3--3--3--3--|--L--8--8--8--8--8--8--8--|--L----------------|--3--3--3--3--3--3--3--3--|
--------------------------|--------------------------|--------------------------|--------------------------|--------------------------|--------------------------|--------------------------|--------------------------|--3--3--3--3--3--3--3--3--|--8--8--8--8--8--8--8--8--|--3--3--3--3--3--3--3--3--|--8--8--8--8--8--8--8--8--|
--------------------------|--------------------------|--------------------------|--------------------------|--------------------------|--------------------------|--------------------------|--------------------------|--8--8--8--8--7--7--7--7--|--0--0--0--0--0--0--0--0--|--8--8--8--8--7--7--7--7--|--0--0--0--0--0--0--0--0--|
--------------------------|--------------------------|--------------------------|--------------------------|--------------------------|--------------------------|--------------------------|--------------------------|--0--0--0--0--0--0--0--0--|--3--3--3--3--3--3--3--3--|--0--0--0--0--0--0--0--0--|--3--3--3--3--3--3--3--3--|
--------------------------|--------------------------|--------------------------|--------------------------|--------------------------|--------------------------|--------------------------|--------------------------|--8--8--8--8--7--7--7--7--|--3--3--3--3--3--3--3--3--|--8--8--8--8--7--7--7--7--|--3--3--3--3--3--3--3--3--|
--------------------------|--------------------------|--------------------------|--------------------------|--------------------------|--------------------------|--------------------------|--------------------------|--3--3--3--3--3--3--3--3--|--8--8--8--8--8--8--8--8--|--3--3--3--3--3--3--3--3--|--8--8--8--8--8--8--8--8--|
--------------------------|--------------------------|--------------------------|--------------------------|--------------------------|--------------------------|--------------------------|--------------------------|--8--8--8--8--7--7--7--7--|--0--0--0--0--0--0--0--0--|--8--8--8--8--7--7--7--7--|--0--0--0--0--0--0--0--0--|
--------------------------|--------------------------|--------------------------|--------------------------|--------------------------|--------------------------|--------------------------|--------------------------|--0--0--0--0--0--0--0--0--|--3--3--3--3--3--3--3--3--|--0--0--0--0--0--0--0--0--|--3--3--3--3--3--3--3--3--|
Verse: PM PM PM PM PM PM PM PM --------------------------|--------------------------|--------------------------|--------------------------|--------------------------|--------------------------|--------------------------|--------------------------|--8--8--8--8--7--7--7--7--|--3--3--3--3--3--3--3--3--|--8--8--8--8--7--7--7--7--|--3--3--3--3--3--3--3--3--|
PM PM PM PM PM PM PM PM PM PM PM PM PM PM PM PM --------------------------|--------------------------|--------------------------|--------------------------|--------------------------|--------------------------|--------------------------|--------------------------|--3--3--3--3--3--3--3--3--|--3--3--3--3--3--3--3--3--|--3--3--3--3--3--3--3--3--|--3--3--3--3--3--3--3--3--|
PM PM PM PM PM PM PM PM PM PM PM PM PM PM PM PM --------------------------|--------------------------|--------------------------|--------------------------|--------------------------|--------------------------|--------------------------|--------------------------|--3--3--3--3--3--3--3--3--|--0--0--0--0--0--0--0--0--|--3--3--3--3--3--3--3--3--|--0--0--0--0--0--0--0--0--|
PM PM PM PM PM PM PM PM PM PM PM PM PM PM PM PM --------------------------|--------------------------|--------------------------|--------------------------|--------------------------|--------------------------|--------------------------|--------------------------|--0--0--0--0--0--0--0--0--|--0--0--0--0--0--0--0--0--|--0--0--0--0--0--0--0--0--|--0--0--0--0--0--0--0--0--|
PM PM PM PM PM PM PM PM PM PM PM PM PM PM PM PM --------------------------|--------------------------|--------------------------|--------------------------|--------------------------|--------------------------|--------------------------|--------------------------|--8--8--8--8--8--8--8--8--|--3--3--3--3--3--3--3--3--|--8--8--8--8--8--8--8--8--|--3--3--3--3--3--3--3--3--|
PM PM PM PM PM PM PM PM PM PM PM PM PM PM PM PM --------------------------|--------------------------|--------------------------|--------------------------|--------------------------|--------------------------|--------------------------|--------------------------|--3--3--3--3--3--3--3--3--|--3--3--3--3--3--3--3--3--|--3--3--3--3--3--3--3--3--|--3--3--3--3--3--3--3--3--|
PM PM PM PM PM PM PM PM PM PM PM PM PM PM PM PM --------------------------|--------------------------|--------------------------|--------------------------|--------------------------|--------------------------|--------------------------|--------------------------|--3--3--3--3--3--3--3--3--|--0--0--0--0--0--0--0--0--|--3--3--3--3--3--3--3--3--|--0--0--0--0--0--0--0--0--|
PM PM PM PM PM PM PM PM PM PM PM PM PM PM PM PM --------------------------|--------------------------|--------------------------|--------------------------|--------------------------|--------------------------|--------------------------|--------------------------|--0--0--0--0--0--0--0--0--|--0--0--0--0--0--0--0--0--|--0--0--0--0--0--0--0--0--|--0--0--0--0--0--0--0--0--|
--------------------------|--------------------------|--------------------------|--------------------------|--------------------------|--------------------------|--------------------------|--------------------------|--8--8--8--8--8--8--8--8--|--3--3--3--3--3--3--3--3--|--8--8--8--8--8--8--8--8--|--3--3--3--3--3--3--3--3--|
--------------------------|--------------------------|--------------------------|--------------------------|--------------------------|--------------------------|--------------------------|--------------------------|--3--3--3--3--3--3--3--3--|--3--3--3--3--3--3--3--3--|--3--3--3--3--3--3--3--3--|--3--3--3--3--3--3--3--3--|
--------------------------|--------------------------|--------------------------|--------------------------|--------------------------|--------------------------|--------------------------|--------------------------|--3--3--3--3--3--3--3--3--|--0--0--0--0--0--0--0--0--|--3--3--3--3--3--3--3--3--|--0--0--0--0--0--0--0--0--|
--------------------------|--------------------------|--------------------------|--------------------------|--------------------------|--------------------------|--------------------------|--------------------------|--0--0--0--0--0--0--0--0--|--0--0--0--0--0--0--0--0--|--0--0--0--0--0--0--0--0--|--0--0--0--0--0--0--0--0--|
--------------------------|--------------------------|--------------------------|--------------------------|--------------------------|--------------------------|--------------------------|--------------------------|--8--8--8--8--8--8--8--8--|--3--3--3--3--3--3--3--3--|--8--8--8--8--8--8--8--8--|--3--3--3--3--3--3--3--3--|
--------------------------|--------------------------|--------------------------|--------------------------|--------------------------|--------------------------|--------------------------|--------------------------|--3--3--3--3--3--3--3--3--|--3--3--3--3--3--3--3--3--|--3--3--3--3--3--3--3--3--|--3--3--3--3--3--3--3--3--|
--------------------------|--------------------------|--------------------------|--------------------------|--------------------------|--------------------------|--------------------------|--------------------------|--3--3--3--3--3--3--3--3--|--0--0--0--0--0--0--0--0--|--3--3--3--3--3--3--3--3--|--0--0--0--0--0--0--0--0--|
--------------------------|--------------------------|--------------------------|--------------------------|--------------------------|--------------------------|--------------------------|--------------------------|--0--0--0--0--0--0--0--0--|--0--0--0--0--0--0--0--0--|--0--0--0--0--0--0--0--0--|--0--0--0--0--0--0--0--0--|
Pre Chorus:--------------------------|--------------------------|--------------------------|--------------------------|--------------------------|--------------------------|--------------------------|--------------------------|--8--8--8--8--8--8--8--8--|--5--5--5--5--5--5--5--5--|--8--8--8--8--8--8--8--8--|--5--5--5--5--5--5--5--5--|
--------------------------|--------------------------|-------------------|--------------------------|--------------------------|-------------------|--------------------------|--------------------------|-------------------|--------------------------|--------------------------|-------------------|--5--5--5--5--5--7-----8--|--L--8--8--8--8--8--8--8--|--L----------------|--5--5--5--5--5--7-----8--|--L--8--8--8--8--8--8--8--|--L----------------|
Chorus:--------------------------|--------------------------|--------------------------|--------------------------|--------------------------|--------------------------|--------------------------|--------------------------|--3--3--3--3--3--3--3--3--|--3--3--3--3--3--3--3--3--|--3--3--3--3--3--3--3--3--|--3--3--3--3--3--3--3--3--|
--------------------------|--------------------------|--------------------------|--------------------------|--------------------------|--------------------------|--------------------------|--------------------------|--8--8--8--8--8--8--8--8--|--8--8--8--8--7--7--7--7--|--8--8--8--8--8--8--8--8--|--8--8--8--8--7--7--7--7--|
--------------------------|--------------------------|--------------------------|--------------------------|--------------------------|--------------------------|--------------------------|--------------------------|--0--0--0--0--0--0--0--0--|--0--0--0--0--0--0--0--0--|--0--0--0--0--0--0--0--0--|--0--0--0--0--0--0--0--0--|
--------------------------|--------------------------|--------------------------|--------------------------|--------------------------|--------------------------|--------------------------|--------------------------|--3--3--3--3--3--3--3--3--|--8--8--8--8--7--7--7--7--|--3--3--3--3--3--3--3--3--|--8--8--8--8--7--7--7--7--|
--------------------------|--------------------------|--------------------------|--------------------------|--------------------------|--------------------------|--------------------------|--------------------------|--3--3--3--3--3--3--3--3--|--3--3--3--3--3--3--3--3--|--3--3--3--3--3--3--3--3--|--3--3--3--3--3--3--3--3--|
--------------------------|--------------------------|--------------------------|--------------------------|--------------------------|--------------------------|--------------------------|--------------------------|--8--8--8--8--8--8--8--8--|--8--8--8--8--7--7--7--7--|--8--8--8--8--8--8--8--8--|--8--8--8--8--7--7--7--7--|
--------------------------|--------------------------|--------------------------|--------------------------|--------------------------|--------------------------|--------------------------|--------------------------|--0--0--0--0--0--0--0--0--|--0--0--0--0--0--0--0--0--|--0--0--0--0--0--0--0--0--|--0--0--0--0--0--0--0--0--|
Bridge:--------------------------|--------------------------|-------------------|--------------------------|--------------------------|-------------------|--------------------------|--------------------------|-------------------|--------------------------|--------------------------|-------------------|--3--3--3--3--3--3--3--3--|--8--8--8--8--7--7--7--7--|--3----------------|--3--3--3--3--3--3--3--3--|--8--8--8--8--7--7--7--7--|--3----------------|
-------------------|-------------------|-------------------|-------------------|-------------------|-------------------|-------------------|-------------------|-------------------|-------------------|-------------------|-------------------|-------------------|-------------------|-------------------|-------------------|--L----------------|--0----------------|--L----------------|--1----------------|--L----------------|--0----------------|--L----------------|--1----------------|
-------------------|-------------------|-------------------|-------------------|-------------------|-------------------|-------------------|-------------------|-------------------|-------------------|-------------------|-------------------|-------------------|-------------------|-------------------|-------------------|--L----------------|--4----------------|--L----------------|--3----------------|--L----------------|--4----------------|--L----------------|--3----------------|
-------------------|-------------------|-------------------|-------------------|-------------------|-------------------|-------------------|-------------------|-------------------|-------------------|-------------------|-------------------|--L----------------|--0----------------|--L----------------|--L----------------|--0----------------|--L----------------|
--------------------------|--------------------------|--------------------------|--------------------------|--------------------------|--------------------------|--------------------------|--------------------------|--1--1--1--1--1--1--1--1--|--1--1--1--1--1--1--1--1--|--1--1--1--1--1--1--1--1--|--1--1--1--1--1--1--1--1--|
Bridge/Outro:--------------------------|-------------------|---------------------|--------------------------|-------------------|---------------------|--------------------------|-------------------|---------------------|--------------------------|-------------------|---------------------|--4--4--4--4--4--4--4--4--|--4----------------|--3------3------3----|--4--4--4--4--4--4--4--4--|--4----------------|--3------3------3----|
---------------------|---------------------|---------------------|---------------------|---------------------|---------------------|---------------------|---------------------|---------------------|---------------------|---------------------|---------------------|--3------3------3----|--0------0------0----|--0------0------0----|--3------3------3----|--0------0------0----|--0------0------0----|
---------------------|---------------------|---------------------|---------------------|---------------------|---------------------|---------------------|---------------------|---------------------|---------------------|---------------------|---------------------|--1------1------1----|--1------1------1----|--4------4------4----|--1------1------1----|--1------1------1----|--4------4------4----|
PM PM PM PM PM PM PM PM PM PM PM PM PM PM --------------------------|---------------------|--------------------------|--------------------------|---------------------|--------------------------|--------------------------|---------------------|--------------------------|--------------------------|---------------------|--------------------------|--4--4--4--4--4--4--4--4--|--3------3------3----|--3--3--3--3--3--3--3--3--|--4--4--4--4--4--4--4--4--|--3------3------3----|--3--3--3--3--3--3--3--3--|
PM PM PM PM PM PM PM PM ---------------------|--------------------------|---------------------|---------------------|--------------------------|---------------------|---------------------|--------------------------|---------------------|---------------------|--------------------------|---------------------|--0------0------0----|--0--0--0--0--0--0--0--0--|--1------1------1----|--0------0------0----|--0--0--0--0--0--0--0--0--|--1------1------1----|
PM PM PM PM PM PM PM PM PM PM PM PM PM PM --------------------------|--------------------------|--------------------------|--------------------------|--------------------------|--------------------------|--------------------------|--------------------------|--1--1--1--1--1--1--1--1--|--4--4--4--4--4--4--4--4--|--1--1--1--1--1--1--1--1--|--4--4--4--4--4--4--4--4--|
--------------------------|-------------------|-------------------|--------------------------|-------------------|-------------------|--------------------------|-------------------|-------------------|--------------------------|-------------------|-------------------|--4--4--4--4--4--4--4--4--|--3----------------|--L----------------|--4--4--4--4--4--4--4--4--|--3----------------|--L----------------|
Tablature Legend ---------------- L - tied note x - dead note g - grace note (n) - ghost note > - accentuded note NH - natural harmonic AH - artificial harmonic TH - tapped harmonic SH - semi harmonic PH - pitch harmonic h - hammer on p - pull off b - bend br - bendRelease pb - preBend pbr - preBendRelease brb - bendReleaseBend \n/ - tremolo bar dip \n - tremolo bar dive -/n - tremolo bar Release up /n\ - tremolo bar inverted dip /n - tremolo bar return -\n - tremolo bar Release down S - shift slide s - legato slide / - slide into from below or out of upwards \ - slide into from above or out of downwards ~ - vibrato W - wide vibrato tr - trill TP - tremolo picking T - tapping S - slap P - pop < - fade in ^ - brush up v - brush down
Tap to rate this tab
 
# A B C D E F G H I J K L M N O P Q R S T U V W X Y Z