Def Leppard - Gods Of War tab

#----------------------------------PLEASE NOTE---------------------------------#
#This file is the author's own work and represents their interpretation of the #
#song. You may only use this file for private study, scholarship, or research. #
#------------------------------------------------------------------------------##
			Gods of War
	              by Def Leppard
	              from  Hysteria

			tabed by
		    jamesb@nevada.edu



intro:


-----------------------------------------------------------------------10--------\8---7----------------7---8---/10--------------------------------------------------7\5----------------------------------------------------------------------------------------------0--0--0--0-----------------------------------------------------------------------------------------------------------------------------------------------
song: part A
----------------------------------------------------------------------------------7------------------------------------7--------------------------6--------6---------------------------6--------6--------------------------6---------6/9vvvvvvvvv---------------6---------6\2vvvvvvvv-----4-------------------------------------4---------------------------------------------------------------------------------------------------
end of A----------------------------------------------------------------------------------7---------------------------------------------------------------6--------6---------------------------4-----6------4----------------------6---------6/7vvvvvvvvv---------------4-----6--------2vvvvvv----4-------------------------------------4---------------------------------------------------------------------------------------------------
r-------------------------------------------------------------------5--4>5>4------5--4>5>4-------4---5---4-----------------------------------4--------------4---------------4---6-------------------------------------------------------------------6---7--------------------------------------------------------------------0-------------------------------------------------------------
repeat once from r-------------------------------------------------------------------5--4>5>4------5--4>5>4-------4---5---4-------/8vvvvvvv-------------------4--------------4---------------4---/7vvvvvvv------------------------------------------------------------------------------------------------------------------------------------0-------------------------------------------------------------
Verse 1+2;second time add part a-------------------------------------------------------------------------------------------------------------------------6---6---6---6---6---6---6----------------------------------6---6---6---6---6---6---6-----------6-----------9----------4---4---4---4---4---4---4--------4-----4-----7-----7----------------------------------0--2-----------5-------------
-------------------------------------------------------------------------------------------------------------------------6---6---6---6---6---6---6----------------------------------6---6---6---6---6---6---6--------4--4----------------------4---4---4---4---4---4---4--0--0--2--2--2--2--4--4-------------------------------------------------0--0--2--2-------
-------------------------------------------------------------------------------------------------------------------------6---6---6---6---6---6---6----------------------------------6---6---6---6---6---6---6-----------6--------9-----11------4---4---4---4---4---4---4--------4-----4----------------------------------------------0--2-----------5-----7-------
-------------------------------------------------------------------------------------------------------------------------6---6---6---6---6---6---6----------------------------------6---6---6---6---6---6---6---4---4---2---2------------------4---4---4---4---4---4---4---2---2---0---0--------------------------------------------------------------------------
pre-chorus 1;
--------------------------------------------------------------5-----------5---------------5--------5--------------------5-----------5---------------7--------7---------3----------5------------3---5----------5---------5-----------------------------------------------------------------------------------------------------------------
--------------------------------------------------------------5-----------5---------------5-----------------------------5-----------5----------------7-----------------3----------5------------3--5------------5--------------------------------------------------------------------------------------------------------------------------
first verse, repeat pre-chorus 1, then pre-chorus 2, then go back to verse(2nd) second verse, go to pre-chorus 2, then to chorus. pre-chorus 2;
-----------------------------------------------------------------------------------------------------------------------------------------------------------------------------7------------9--9--9--9--9--9--9--9--9--9--9--5---7---7----7--7--7--7--7--7--7--7--7--7--7------5---5--
--------------------------------------------------------------------------------------------------------------------------------------------9--9--9--9--9--9--9--9--9--9--9---------------7--7--7--7--7--7--7--7--7--7--7--7--7--7--9\-----------------------------------5--5--5--7\
-----------------------------------------------------------------------------------------------------------------------------------------------------------------------7------------------9--9--9--9--9--9--9--9--9--5--7--7------------7--7--7--7--7--7--7--7--7-----5--5----------
1st time;-----------------------------------------------------------------------------------------------------------------------------------------------------9--9--9--9--9--9--9--9--9--9--9--9--9--9--9--9---7--7--7--7--7--7--7--7--7--7--7--7--7--7--7--7--------------------------------------------------
2nd time;----------------------------------------------------------------------------------------------------------------------------------5--5--------7--7---9--9--9--9--9--9--9--9--9--9--5--5--5--5--7--7---7--7--7--7--7--7--7--7--7--7--3--3--5--5--5--5---------------------------------------3--3-------
Chorus:
-----------------------------------------------------------------------------------------------------------------------8--8-----------------------------------------5----5----5--5--------7--7-----7--7---5---5---5--5--------5--5------5---5---5----5----5--5--5--5--7--7------------5---5---5--5--5--5--5--5------2---2---3----3----3--3--5--5--5--5------------3---3---3--3--5--5--7--7------------------------------3--3--------------------------------3--3--------
------------------------------------------------------------------------------------------------------------------------------------5---5---5--5--------7--7----------------------------5---5---5---5---5--5--5--5--7--7----------------------------2---2---3---3---3--3--5--5--5--5--------------------------------------------------3--3-------------3---3---2---0----
go back and repaet part that begins with the little r.
----------------------------------------------------------------------------7--------------------------------7-----------------------6----------6----------------------6----------6--------9--------------6---------6-----9VVVVVV----------6------------6---------7-----------------------------------------------------------------------------------------------------------------------------------
---------------------------------------11---12---11--12--12>(14)----11-11>(12)-----------------------------12--12/14---------------------------14----------------9/11------11-11/13vvvvv--------------------------------------------------------------9-----------------------------------------------------------------------------------------------------------------------------------------------------------------------------------------------------------------------------------
--------------------------------------------------------------------------------------------------------------------------------------------------------13vvvvvvvvv----11>(13)>11---------11>(13)>11---11>9--------11/13-----------------------------------------------------------------9------------------------------------------------------------------------------------------------------------------------------------------------------------------
go back and repeat appropriate parts. The segue to the end is
--------------------------------------------5---5---------------5---5---5-----2-----3---3---2-----0---------------------
accoustic;
-------------------------------------0----------------------------0-------------------0>1>0--------------0>1-----------3----------------0-----0------------2-----------2-------2--------------2---------------5------------------2--------------------------------------------------3------------------0---------------------3----------------------------5-----------------------------------------------------------2---------0---------------------
symbols;
legato ----2>3>4>2-----bend ----2>(4)-------
bend and release ----2>(4)>2-----vibrato ----2vvvvvvvvv--deep vibrato with bar ----2VVVVVVVVV--
Tap to rate this tab
 
# A B C D E F G H I J K L M N O P Q R S T U V W X Y Z