Depapepe - Arigatou tab

ありがとう Capo2

*----------------------------------------------------------------------------|-4-5-5s7--4-5-5s7--4-5-5s7--5-4-4s5-4----4s5---4s5---4s5--4-4s8-8-8-8-8-5-4-|----------------------------------------6-----6-----6----6------------------|----------------------------------------------------------------------------|----------------------------------------------------------------------------|----------------------------------------------------------------------------|
-4-5-5s7--4-5-5s7--5-4-4s54--4s5-4------|-----------------------------------6-4-4-|-----------------------------------------|-----------------------------------------|-----------------------------------------|-----------------------------------------|
**----4-6-6s7--6------------------------------------------|-5s7-----------7-7s9-7----------4-4s5--5--5s7--5-4--4-4-|-----------------------8p6-4-4-6-------------------6----|--------------------------------------------------------|--------------------------------------------------------|--------------------------------------------------------|
----4-6-6s7---6--------9s11-9-7---7-9-11-11--11s12-11-9|-5s7-----------7-7s9s7----------------------------------|--------------------------------------------------------|--------------------------------------------------------|--------------------------------------------------------|--------------------------------------------------------|
***------7-9-9s11------7-7s9-----6-6s7--6-7s9-7----------|--9s11----------9-11-------7-9------------------------|------------------------------------------------------|------------------------------------------------------|------------------------------------------------------|------------------------------------------------------|
------7-9-9s11------7-7s9-----6-6s7--6----------------|--9s11----------9-11-------7-9--------7-7-------------|------------------------------------------------------|------------------------------------------------------|------------------------------------------------------|------------------------------------------------------|
------7-9-9s11------7-7s9-----6-6s7--6-7s9-7---6-------7-7-----7-7--6----|-9s11----------9-11-------7-9----------------------5-4-----5-4-----------|-------------------------------------------------------------------------|-------------------------------------------------------------------------|-------------------------------------------------------------------------|-------------------------------------------------------------------------|
Repeat : *
****-------------------------------------------------------|-12--11--9----9----------------------------------------|----------11---11--9--8--9--11-------8-----------------|-------------------------------9--11---11--9--9--------|-------------------------------------------------------|X3-------------------------------------------------------|
------------------------------------7--7s9--7---------|-12--11--9----9----------------9--11------------------|-----------11---11--9--8--9--11-----------------------|------------------------------------------------------|------------------------------------------------------|------------------------------------------------------|
-6h7p6-------9s11--9s7-------------------------7p6-7p6-9-9s11-9s7-----7-7--|------7s9-9-----------5s7-5-4-5-4-0---------7s9--------------------7s9-----|--------------------------------------4-4----------------------------------|-----------------------------------4s6-------------------------------------|---------------------------------------------------------------------------|---------------------------------------------------------------------------|
---------------------4----4-5--4-6-6s7---5-7-7s9---7-9-9s11-9-|----4-5--4-5-5s7--5-7-7---------------------------------------|-4s6----------------------------------------------------------|--------------------------------------------------------------|--------------------------------------------------------------|--------------------------------------------------------------|
-9-11-12----11-1212s14-----|----------------------------|----------------------------|----------------------------|----------------------------|----------------------------|
Repeat : **/***/*
Tap to rate this tab
 
# A B C D E F G H I J K L M N O P Q R S T U V W X Y Z