Devil Sold His Soul - Like Its Your Last tab

Intro/Verse

Jonny part (This part is the same when its heavy)----------------------------------------|----------------------------------------|---5-----4-----2-----0------------------|---7-----5-----3-----2------------------|---0-----0-----0-----0------------------|----------------------------------------|
----------------------------------------|----------------------------------------|---5-----4-----2------2-----------------|---7-----5-----3------0-----------------|---0-----0-----0------0-----------------|----------------------------------------|
----------------------------------------|-----------------------0----------------|---5-----4-----2------0-----------------|---7-----5-----3------3-----------------|---0-----0-----0------------------------|----------------------------------------|
Riks lead part (Clean picking over other guitar)
----------------------------------------|----------------------------------------|---------------13-----------------------|---------14--------14-------------------|---14-----------------------------------|----------------------------------------|
Second half of intro
Jonny Rik----------------/--------------------------------------|----------------/-----13------12-----13-----12---------|----------------/-----14------14-----14-----14---------|---2-----3-----/-----14------14-----15-----15----------|---0-----0-----/---------------------------------------|----------------/--------------------------------------|
Clean part where distortion is ringing out after first verse
---0----0-----0----0-------------------------|---1----0-----1----0-------------------------|---2----2-----2----2-------------------------|---2----2-----3----3-------------------------|---0----0------------------------------------|---------------------------------------------|
Chorus
---0----0-----0----0----0----0----0-----0----------|---1----0-----1----0----1----0----1-----0----------|---2----2-----0----0----2----2----2-----2----------|---2----2-----2----2----3----3----2-----2----------|---0----0-----3----3---------------0-----0---------|---------------------------------------------------|
Drum fills section (all palm muted, other guitar plays chorus riff still then joins in with the same)
----------------------------------------|----------------------------------------|----------------2-----------------------|---2-----2-----3------ 2----------------|---0-----3-------------0----------------|----------------------------------------|
Chord Strikes bit Jonny Rik
---0-----0----/---------------------------|---1-----1----/---------------------------|---2-----2----/----2----------------------|---2-----3----/----2--- 3-----------------|---0-----3----/----0----3-----------------|---------------/----------1---------------|
Outro (this is kinda simplified as there are LOADS of tracks haha) First bit is both guitars, second bit is the lead part that comes in
-------------------------------/------------------------------|-------------------------------/------------------------------|---17----16----17----16-----/---17--16--17--------------------|-------------------------------/------------------------------|---15----14----15----15-----/---15--14--15--------------------|---17----15----13----13-----/---------------------------------|
Jonny Lead part Sometimes the second bit on the end of the riff, sometimes the third bit
-------------------/---------------------/------------------|-------------------/---------------------/------------------|---17---19---21-/--------17---16----/---22------------------|-------------------/---------------------/------------------|---15---17---19-/--------15---14----/---20------------------|-------------------/---------------------/------------------|
Rik (theres some variations on this but thatís the general patern)
------------------------------------------|------------------------------------------|------------------------------------------|---7----5---3-----------------------------|---7----5---3-----------------------------|---5----3---1-----------------------------|
Tap to rate this tab
 
# A B C D E F G H I J K L M N O P Q R S T U V W X Y Z