Devildriver - Pure Sincerity tab

Pure Sincerity, awesome song off Pray For Villains,
Standard C tuning: C F A# D# G E

Intro (chorus riff)|--------||----------------------------------------------------------||--------||----------------------------------------------------------||--------||----------------------------------------------------------||--------||----------------------------------------------------------||--------||-2-----------2-2-----------2-2-----------2-2--------------||-//12\\-||-0--6-3-6-3--0-0--6-3-6-7--0-0--6-3-6-3--0-0-6-6-7-7-8-8b-|[Pinch on the last 8 for the second ending]
Lead then plays this twice [with wah], without the ending second time|--------------------------------------------|---------------||-17b--15-17-15--18--17-15-18--20-18-17-17\\-|-17--20--22-20-||----------------------------------------^---|---------------||----------------------------------------^---|---------------||-----------------lower-note-with-whammy-bar-|---------------||--------------------------------------------|---------------|
Break|---------------------------------------------------------------------||---------------------------------------------------------------------||---------------------------------------------------------------------||---------------------------------------------------------------------||-2---------------2------------------------------------2--------------||-0--10-11-12-15--0--12-7-11-8-11h12-12--10-11-12-15v--0--6-6-3-6-3-7-|
|-----------------------------------------------------------------------||-----------------------------------------------------------------------||-----------------------------------------------------------------------||-----------------------------------------------------------------------||-2-----------------2------------------------------------2--------------||-0--1010111112-15--0--12-7-11-8-11h12-12--10-11-12-15v--0--6-6-3-6-3-7-| PM--------|
Verse|--------------------------------------------------------------||--------------------------------------------------------------||--------------------------------------------------------------||--------------------------------------------------------------||--------------------------------------------------------------||-0-000-00000-0-000-6-6-3-6-3-7--0-000-00000-0-000-3-3-1-3-1-4-|PM----------------| -----------------|
|----------------------------------------------------------------||----------------------------------------------------------------||----------------------------------------------------------------||----------------------------------------------------------------||----------------------------------------------------------------||-0-000-00000-0-000-6-6-3-6-3-7--0-000-00000-0-000-0-1-3-4-3-1-3-|PM----------------| -----------------|
|--------------------------------------------------------------||--------------------------------------------------------------||--------------------------------------------------------------||-------------------8-8-5-8-5-9--------------------5-5-3-5-3-6-||--------------------------------------------------------------||-00000000000000000-6-6-3-6-3-7--00000000000000000-3-3-1-3-1-4-|
|---------------------------------------------------------------||---------------------------------------------------------------||---------------------------------------------------------------||-------------------8-8-5-8-5-9------------------------------PH-||------------------------------------------------------------^--||-00000000000000000-6-6-3-6-3-7--00000000000000000-0-1-3-4-3-1b-|
Play chorus riff, break and verse then chorus again
|----------------------------------------------------------||----------------------------------------------------------||----------------------------------------------------------||-7--7-7-1010109--2-3--3-3-3-2--222-5-2-2-7-2-2-7-2-7-9-10-||----------------------------------------------------------||-5--5-5-8-8-8-7--0-1--1-1-1-0--000-3-0-0-5-0-0-5-0-5-7-8--|
|----------------------------------------------||----------------------------------------------||----------------------------------------------||-12-12-12-11-11-11----------------------------||-------------------10-10-10-9-9-9-10-9--------||---------------------------------------10-12~-|
Quick drum fill then:|------------------------------------------------------------||------------------------------------------------------------||------------------------------------------------------------||------------------------------------------------------------||--------------------------------------10-13---------13------||-3p0-000000000000-3p0-00000-5p0-00-10-------12=====----12~--|
|------------------------------------------------------------------------------------||------------------------------------------------------------------------------------||------------------------------------------------------------------------------------||------------------------------------------------------------------------------------||--------------------------------------10-13---------13------------10h13p10-12p10----||-3p0-000000000000-3p0-00000-5p0-00-10-------12=====----12=====-10----------------10-|
Things to come... it must be from the heart...|--------------------------------------------------------------------------------------------------||--------------------------------------------------------------------------------------------------||--------------------------------------------------------------------------------------------------||--------------------------------------------------------------------------------------------------||-5-5-5-5-5-5-5-5----------------------------------------------------------------------------------||-----------------6-6-6-6-6-6-6-6-8-8-8-8-8-8-8-8-3-3-3-3-3-3-3-3-6-6-6-6-6-6-6-6-5-5-5-5-5-5-5-5--|
||
|--------------------------------------------------------------------------------------------------||--------------------------------------------------------------------------------------------------||--------------------------------------------------------------------------------------------------||-12121212121212128-8-8-8-8-8-8-8-1010101010101010-------------------------------------------------||-------------------------------------------------101010101010101013131313131313131212121212121212-||--------------------------------------------------------------------------------------------------|
|-------------------------||-------------------------------------------------||-------------------------||-------------------------------------------------||-------------------------||-------------------------------------------------||-------------------------||-------------------------------------------------||-------------------------||-------------------------------------------------||-4-3h4-3h4-0-4-3h4-3h4-0-||-4-3h4-3h4-0-4-3h4-3h4-0-4-3h4-3h4-0-4-3h4-3h4-0-|
|| Lead with wah|-------------------------||-------------------------------------------------||-15b~--------------------||-15b~--------------------19b~--------22b~--------||-------------------------||-------------------------------------------------||-12b~--------------------||-------------------------------------------------||-------------------------||-------------------------------------------------||-------------------------||-------------------------------------------------|
|----------------------------------------------------||----------------------------------------------------||----------------------------------------------------||----------------------------------------------------||-2-2---------2-2-2----------2-2---------2-2-5-5-3-3-||-0-0-6p5-6p5-0-0-0-6p5-6h7--0-0-6p5-6p5-0-0-3-3-1-1-|
||
|----------------------------------------------------||-22b~---------------------------22b~--------22b-22b-||----------------------------------------------------||----------------------------------------------------||----------------------------------------------------||----------------------------------------------------|
|----------------------------------------------------||----------------------------------------------------||----------------------------------------------------||----------------------------------------------------||-2-2---------2-2-2----------2-2---------2-2-5-5-3-3-||-0-0-6p5-6p5-0-0-0-6p5-6h7--0-0-6p5-6p5-0-0-3-3-1-1-|
||
|----------------------------------------------------||-22b~-----------------------------------------------||----------------------------------------------------||----------------------------------------------------||----------------------------X\\\\\\\\\\\\\\\\\\\\\--||----------------------------X\\\\\\\\\\\\\\\\\\\\\--|
|-------------------------------------------------||-------------------------------------------------||-------------------------------------------------||-------------------------------------------------||-2-2--------------2-2------------2-2-------------||-0-0-10-10-11-12--0-0-10-10h12--00-0-10-10-11-12-|
|---------||------------------||---------||------------------||---------||---------------PH-||---------||------------------||-8-8-5-5-||-12-12-8-8-5-5-^--||-6-6-3-3-||-10-10-6-6-3-3-3b-|
Play Intro again with lead part That's it (: any corrections welcome
Tap to rate this tab
 
# A B C D E F G H I J K L M N O P Q R S T U V W X Y Z