You Make Me Sick tab with lyrics by Devildriver - Easy chords and tabs for guitar

Devildriver – You Make Me Sick tab

Intro

|----12-----15----15----15---------||-13----13-----13----13------------||----------------------------------||----------------------------------| Gtr 1|----------------------------------||----------------------------------|
|-----------------------------------------------------||-----------------------------------------------------||-----------------------------------------------------||-3-----3-----3---3-----3-----3---3-----3-----3---3---| Gtr 2|-3-----3-----3---3-----3-----3---3-----3-----3---3---||---000---000---0---000---000---0---000---000---0-----| ... ... . ... ... . ... ... .
(continue Gtr 2)
|-----------------------------------------------------||-----------------------------------------------------||-----------------------------------------------------||-----------------------------------------------------||-0-----0-----0---0-----0-----0---0-----0-----0---0---||-0-000-0-000-0-0-0-000-0-000-0-0-0-000-0-000-0-0-0---| ... ... . ... ... . ... ... .
Riff 1
|-------------------------------------------------------------------||-------------------------------------------------------------------||-------------------------------------1-1-4-4-----------------------||-3-----3-----3-1-1-4-4-3-----3-----3-1-1-4-4-----------------------||-3-----3-----3-1-1-4-4-3-----3-----3---------5-----5-----5-3-3-6-6-||---000---000-------------000---000-----------3-000-3-000-3-1-1-4-4-| ... ... ... ... ... ...
(continue Riff 1)
|-------------------------||-------------------------||-------------------------||-------------------------||-8-----8-----8-6-6-9-9---||-6-000-6-000-6-4-4-7-7---|... ...
Riff 2
|---------------------------------------------------------||---------------------------------------------------------||---------------------------------------------------------||-0p1-3-----3-----3-0p3-3-----3-----3-0p1-3-----3-----3---||-----3-----3-----3-----3-----3-----3-----3-----3-----3---||-------000---000---------000---000---------000---000-----| ... ... ... ... ... ...
(continue Riff 2)
|---------------------------------------||---------------------------------------||---------------------------------------||---------------------------------------||-------------222444555444--------------||-222444555444--------------------------| ........................
Riff 3
|----------------------------------------------------||----------------------------------------------------||----------------------------------------------------||----------------------------------------------------||-0-00222444555--6-6-222444555--6-6-222444555--6-6---||----------------6-6------------6-6------------6-6---| ........... .......... ..........
(Continue)
|-------------------------------||-------------------------------||-------------------------------||-------------------------------||--------------33355566655------||-33355566655-------------------| ........... ...........
Riff 4
|---------------------------------------------||---------------------------------------------||---------------------------------------------||---------------------------------------------||-666888999-6-6-666888999-6-6-666888999-6-6---||-----------6-6-----------6-6-----------6-6---| ......... ......... .........
(Continue)
|---------------------------------||---------------------------------||---------------------------------||---------------------------------||----------------77799910101099---||-77799910101099------------------| .............. ..............
after this riff there was one that i couldn´t tab so sorry Riff 6
|-------------------------------------------------------------------------||-------------------------------------------------------------------------||-------------------------------------------------------------------------||-8-8-8-8-8-8-8-8-6-6-6-6-9-9-9-9-8-8-8-8-8-8-8-8-11-11-11-11-14-14-14-14-||-------------------------------------------------------------------------||-------------------------------------------------------------------------|
(Continue)
|-----------------------------------------------------------||-----------------------------------------------------------||-----------------------------------------------------------||-11-11-11-11-11-11-11-11-14-15-15-15-15-15-15-15-15-11-14--| Gtr 1|-----------------------------------------------------------||-----------------------------------------------------------|
|------------------------||------------------------||------------------------||-------3—(3)-6----------| Gtr 2|-2-(2)-3-(3)-6--2-------||-0-(0)-1-(1)-4--0-------|
Small part after the 7 string Riff|---------------------------------------------||10-10-10-10-8-8-8-8-11-11-11-11-10-10-10-10--||---------------------------------------------||---------------------------------------------| x2|---------------------------------------------||---------------------------------------------|
|-------------------------------------||-12-12-12-12-12-12-12-14-14-14-15-15-||-------------------------------------||-------------------------------------||-------------------------------------||-------------------------------------|
Outro
|------------------------------------------------------------------||------------------------------------------------------------------||------------------------------------------------------------------||-3/----------3/----------3/----------3/-----------3/--------------||-3/-00000000-3/-00000000-3/-00000000-3/-000000000-3/-000000000----||------------------------------------------------------------------|
well there still some parts of these riffs that i need to tab but its too hard for me i could try but only if this tab gets rated and comments otherwise there is just no point to it i did my best hope you like it please comment it would really help me if did. THANKS
Please rate this tab:
x1.0