Dimmu Borgir - Metal Heart tab

Artist: Dimmu Borgir(Originally by Accept)
Song: Metal Heart
Album: Godless Savage Garden

Any questions/comments please e-mail then to XxRagNaroKxX@yahoo.com


Gtr I (E A D G B E) - 'Lead/Rythym'
Gtr II (E A D G B E) - 'Lead/Rhythm'

Q=130 7/4 Gtr II|--------------------|----------------------------------||--------------------|----------------------------------||-4----3-------------|-----4--4--3-3h4p3----------------||---------5-4-2------|-4-5---------------5-4-(4)-2-(2)--||--------------------|----------------------------------||--------------------|----------------------------------|
9/4 Gtr I|------------------------|---------------------------------------||------------------------|---------------------------------------||-2----------------------|------4-----(4)------------------------||-0-----------5----------|-(5)--2-----(2)-5-------(5)--4--(4)----||-------------3----------|-(3)------------3-------(3)--2--(2)----||------------------------|---------------------------------------|
|
| Gtr II|------------------------|---------------------------------------||------------------------|---------------------------------------||----2--0----------------|---------------------------------------||-4--------4--2-1-2-4-5--|------9-9-9-(9)-8----------------------||------------------------|--7---------------10-------------------||------------------------|---------------------12-----14-(14)----|
7/4|--------------------|------------------------------------||--------------------|------------------------------------||-4-----------4------|-(4)---4------------------4---------||-2----5------2------|-(2)---2-----5------------2---------||------3-------------|-------------3----------------------||--------------------|------------------------------------|
|
|--------------------|------------------------------------||--------------------|------------------------------------||-4----3-------------|-------4--4--3-3h4p3----------------||---------5-4-2------|--4--5---------------5-4-(4)-2-(2)--||--------------------|------------------------------------||--------------------|------------------------------------|
9/4 2/4|------------------------|---------------------------------|--------||------------------------|---------------------------------|--------||-2----------------------|------4-4-4-(4)------------------|--------||-0-----------5----------|-(5)--2-2-2-(2)-5-5-5-4-(4)------|-(4)----||-------------3----------|-(3)------------3-3-3-2-(2)------|-(2)----||------------------------|---------------------------------|--------|
|
|------------------------|---------------------------------|--------||------------------------|---------------------------------|--------||----2--0-------------0--|------4-4-4-(4)-3----------------|--------||-4--------4--2-1-2-4----|--2---------------5-2-4-(4)------|-(4)----||------------------------|---------------------------------|--------||------------------------|---------------------------------|--------|
4/4 Gtrs I, II|-------------------------|-------------------------|-------------------------||-------------------------|-------------------------|-------------------------||-------------------------|-------------------------|-------------------------||-5-----5-----5-----5-----|-6-----6-----6-----6-----|-5-----5-----5-----5-----||-3-3-3-3-3-3-3-3-3-3-3-3-|-3-3-3-3-3-3-3-3-3-3-3-3-|-3-3-3-3-3-3-3-3-3-3-3-3-||-------------------------|-------------------------|-------------------------|
|-----------|-------------------------|--------------------------||-----------|-------------------------|--------------------------||-----------|-------------------------|--------------------------||-6----5----|-5-----5-----5-----5-----|-6-----6-----6-----6------||-3----3----|-3-3-3-3-3-3-3-3-3-3-3-3-|-3-3-3-3-3-3-3-3-3-3-3-3--||-----------|-------------------------|--------------------------|
|-------------------------|-----------|--------------------------||-------------------------|-----------|--------------------------||-------------------------|-----------|--------------------------||-5-----5-----5-----5-----|-6----5----|-5-----5-----5-----5------||-3-3-3-3-3-3-3-3-3-3-3-3-|-3----3----|-3-3-3-3-3-3-3-3-3-3-3-3--||-------------------------|-----------|--------------------------|
|-------------------------|-------------------------|------------||-------------------------|-------------------------|------------||-------------------------|-------------------------|------------||-6-----6-----6-----6-----|-5-----5-----5-----5-----|------------||-3-3-3-3-3-3-3-3-3-3-3-3-|-3-3-3-3-3-3-3-3-3-3-----|-6----5-----||-------------------------|---------------------3-4-|-4----3-----|
|-------------------------|-------------------------|--------------||-------------------------|-------------------------|--------------||-------------------------|-------------------------|--------------||-5-----5-----5-----5-----|-6-----6-----6-----6-----|-5------------||-3-3-3-3-3-3-3-3-3-3-3-3-|-3-3-3-3-3-3-3-3-3-3-3-3-|-3--6--(6)----||-------------------------|-------------------------|----4--(4)----|
|--------------|-------------------------|--------------------------||--------------|-------------------------|--------------------------||--------------|-------------------------|--------------------------||-8------------|-5-----5-----5-----5-----|-6-----6-----6-----6------||-6--8--(8)----|-3-3-3-3-3-3-3-3-3-3-3-3-|-3-3-3-3-3-3-3-3-3-3-3-3--||----6--(6)----|-------------------------|--------------------------|
|-------------------------|-----------|--------------------------||-------------------------|-----------|--------------------------||-------------------------|-----------|--------------------------||-5-----5-----5-----5-----|-----------|-5-----5-----5-----5------||-3-3-3-3-3-3-3-3-3-3-----|-6----5----|-3-3-3-3-3-3-3-3-3-3-3-3--||---------------------3-4-|-4----3----|--------------------------|
|-------------------------|--------------|------||-------------------------|--------------|------||-------------------------|--------------|------||-6-----6-----6-----6-----|-5------------|------||-3-3-3-3-3-3-3-3-3-3-3-3-|-3--6--(6)----|-5----||-------------------------|----4--(4)----|-3----|
|-----------------------|-----------------------|-0---------1-0------||-----------------------|-1--0-(0)--1-----------|-1--3-(3)--3-1------||-2--0-(0)--2-----------|-2--0-(0)--2-----------|----4-(4)-----------||-2--0-(0)--2-----------|-----------------------|----------------2---||-------------0-0-0-0-0-|-------------0-0-0-0-0-|----------------0---||-----------------------|-----------------------|--------------------|
|------------------|-----------------------|------------------------||------------------|-----------------------|-1--0-(0)--1------------||------------------|-2--0-(0)--2-----------|-2--0-(0)--2------------||------------------|-2--0-(0)--2-----------|------------------------||-5----------------|-------------0-0-0-0-0-|-------------0-0-0-0-0--||-3----3-3p0-0h3h4-|-----------------------|------------------------|
|-0---------1-0-----|----------|-------------------------||-1--3-(3)--3-1-----|----------|-------------------------||----4-(4)----------|----------|-------------------------||----------------2--|----------|-5-----5-----5-----5-----||----------------0--|-5--------|-3-3-3-3-3-3-3-3-3-3-3-3-||-------------------|-3--------|-------------------------|
|-------------------------|-------------------------|------------||-------------------------|-------------------------|------------||-------------------------|-------------------------|------------||-6-----6-----6-----6-----|-5-----5-----5-----5-----|-6----5-----||-3-3-3-3-3-3-3-3-3-3-3-3-|-3-3-3-3-3-3-3-3-3-3-3-3-|-3----3-----||-------------------------|-------------------------|------------|
|-------------------------|-------------------------|--------------||-------------------------|-------------------------|--------------||-------------------------|-------------------------|--------------||-5-----5-----5-----5-----|-6-----6-----6-----6-----|-5------------||-3-3-3-3-3-3-3-3-3-3-3-3-|-3-3-3-3-3-3-3-3-3-3-3-3-|-3--6--(6)----||-------------------------|-------------------------|----4--(4)----|
|--------------|-------------------------|--------------------------||--------------|-------------------------|--------------------------||--------------|-------------------------|--------------------------||-8------------|-5-----5-----5-----5-----|-6-----6-----6-----6------||-6--8--(8)----|-3-3-3-3-3-3-3-3-3-3-3-3-|-3-3-3-3-3-3-3-3-3-3-3-3--||----6--(6)----|-------------------------|--------------------------|
|--------------|----------|-----------------------||--------------|----------|-----------------------||--------------|----------|-2--0-(0)--2-----------||-5------------|----------|-2--0-(0)--2-----------||-3--6--(6)----|-5--------|-------------0-0-0-0-0-||----4--(4)----|-3--------|-----------------------|
|-----------------------|-0---------1-0-----|------------------||-1--0-(0)--1-----------|-1--3-(3)--3-1-----|------------------||-2--0-(0)--2-----------|----4-(4)----------|------------------||-----------------------|----------------2--|------------------||-------------0-0-0-0-0-|----------------0--|-5----------------||-----------------------|-------------------|-3----3-3-0-0-3-4-|
|-----------------------|-----------------------|-0---------1-0------||-----------------------|-1--0-(0)--1-----------|-1--3-(3)--3-1------||-2--0-(0)--2-----------|-2--0-(0)--2-----------|----4-(4)-----------||-2--0-(0)--2-----------|-----------------------|----------------2---||-------------0-0-0-0-0-|-------------0-0-0-0-0-|----------------0---||-----------------------|-----------------------|--------------------|
|----------|-------------------------------------||----------|-------------------------------------||----------|-------------------------------------||----------|-------------------------------------||-5--------|--2-----2-------2---------2----------||-3--------|--0-0-0-0-0-0---0---0--0--0-----0--0-|
|
| Gtr II|----------|-------------------------------------||----------|-------------------------------------||----------|-------------------------------------||----------|-------------------------------------||----------|-------------------------------------||----------|-12-----------(12)-12-14-15-17-19-20-|
|---------------------------------------||---------------------------------------||---------------------------------------||---------------------------------------||--2-----------2--------2-------2-------||--0-----0--0--0----0-0-0---0-0-0---0-0-|
|
|---------------------------------------||-------------------5-5-5-5-5-5-5-5-5-5-||-------------------9-9-9-9-9-9-9-9-9-9-||---------------------------------------||-18-19-21-19-18-19---------------------||---------------------------------------|
|---------------------------------|-------------------------||---------------------------------|-------------------------||---------------------------------|-------------------3-----||---------------------------------|-5-----5-----4-----1-1-1-||-2-------2-------2-------2-------|-3-3-3-3-3-3-2-2-2-------||-0---0-0-0---0-0-0---0-0-0---0-0-|-------------------------|
|
|---------------------------3---5-|-5-----------5-3---2-3-2-||-5-4---4h5p4---4h5p4---4-5-------|-------------------------||-9---5-------5-------5-----------|-------------------------||---------------------------------|-------------------------||---------------------------------|-------------------------||---------------------------------|-------------------------|
|--------------------------------|---------------------------------||--------------------------------|---------------------------------||--------------------------------|---------------------------------||--------------------------------|---------------------------------||-2-----2-------2-------2--------|-2-------2-------2-------2-------||-0-0-0-0---0-0-0---0-0-0---0--0-|-0---0-0-0---0-0-0---0-0-0---0-0-|
|
|---8-7-5-7-8-7-5-7-8-7-5-7-8-10-|-8-7-8-7-5-7-5-3-5-3-2-3-2-------||-5------------------------------|---------------------------5-4-5-||--------------------------------|---------------------------------||--------------------------------|---------------------------------||--------------------------------|---------------------------------||--------------------------------|---------------------------------|
|--------------|-----------------|------------------|----------------||--------------|--3--------------|------------------|----------------||-4------------|--0---2---(2)----|------------------|----------------||-2--5--(5)----|------0---(0)----|------------------|-5--------------||----3--(3)----|-----------------|------------------|-3--------------||--------------|-----------------|------------------|----------------|
|
|-3--3--(3)----|-10--10--(10)----|------------------|----------------||--------------|-----------------|--8-(8)-6-8---6-4-|--------------3-||--------------|-----------------|------------7-----|-5----(5)---5---||--------------|-----------------|------------------|----------5-----||--------------|-----------------|------------------|----------------||--------------|-----------------|------------------|----------------|
|----------------------|--------------|---------------------|----------------||----------------------|--------------|---------------------|----------------||----------------------|--------------|---------------------|----------------||----------------------|-5------------|---------------------|-5--------------||-5--------------------|-3------------|--5------------------|-3--------------||-3--------------------|--------------|--3------------------|----------------|
|
|----------------------|--------------|-----3-(3)-1-3---1---|----------------||-3h4p3-(3)-4p3h4-3-3--|-1------------|---------------3---4-|--------------3-||----------------------|----0--(0)----|-(0)-----------------|-5----(5)---5---||----------------------|--------------|---------------------|----------5-----||----------------------|--------------|---------------------|----------------||----------------------|--------------|---------------------|----------------|
|----------------------|-------------|-----------|-----------||----------------------|-------------|-----------|-----------||----------------------|-------------|-3---------|-----------||----------------------|-5-----3-----|-1---------|-3------4--||-5--------------------|-3-----------|-----------|-1------2--||-3--------------------|-------6-----|-----------|-----------|
|
|----------------------|-------------|-----------|-----------||-3h4p3-(3)-4p3h4-3-3--|-1---3-4--6--|-6------8--|-6------6--||----------------------|-------------|-----------|-----------||----------------------|-------------|-----------|-----------||----------------------|-------------|-----------|-----------||----------------------|-------------|-----------|-----------|
|---------------------------------|---------------------------------||---------------------------------|---------------------------------||---------------------------------|---------------------------------||-5-------------------------------|---------------------------------||-3-------------------------------|-5-------------------------------||---------------------------------|-3-------------------------------|
|
|---------------------------------|---------------------------------||-4-6-4-6-4-6-4-6-4-6-4-6-4-6-4-6-|-4-3-4-3-1-3-1-0-1-0-------------||---------------------------------|---------------------2-4-5-4-2-4-||---------------------------------|---------------------------------||---------------------------------|---------------------------------||---------------------------------|---------------------------------|
|----------------------|-------------------------------------------------||----------------------|-------------------------------------------------||----------------------|-------------------------------------------------||----------------------|-------------------------------------------------||-(5)------------------|-------------------------------------------------||-(3)------------------|-------------------------------------------------|
|
|----------------------|-12----------------------------------------------||----------------------|----13----------12-13-15-17----------------------||--5--4-2-4-5-4-2-0----|-------14----14-------------17-------------------||----------------------|----------14-------------------19----19-21-22-24-||----------------------|----------------------------------19-------------||----------------------|-------------------------------------------------|
Gtr II|-------------------------------------------------||-------------------------18----------------------||-22-------------------19----19----------------22-||----24-21----21----21----------21----21----24----||----------22----22----------------22----22-------||-------------------------------------------------|
|-------------------------------------------------||-------------------------------------------------||-21----------------------21----------------------||----22----------21-22-24----22----------21-22-24-||-------24----24----------------24----24----------||----------24----------------------24-------------|
|-------------------------------------------------||-------------------------------------------------||-------------------------------------------------||-24-21-------------21-22-24-21-------------21-22-||-------22----22-24-------------22----22-24-------||----------22----------------------22-------------|
|---------------------------------------------||--------------------------17--17-------------||----22--22-------------19--------16-17-16-17-||-24-----------21-19-21-----------------------||-----------24--------------------------------||---------------------------------------------|
|----13--13-------------10-12--12-------------||-15-----------12-10-12-----------12-13-12-13-||-----------14--------------------------------||---------------------------------------------||---------------------------------------------||---------------------------------------------|
|----13----13-------------10-12-10-12-------------||-15----15-------12-10-12-------------12-13-12-13-||-------------14----------------------------------||-------------------------------------------------||-------------------------------------------------||-------------------------------------------------|
|-----------------------------------------------||-13-12-13-13-12-13-15-13-15-17-15-17-18-17-18--||-----------------------------------------------||-----------------------------------------------||-----------------------------------------------||-----------------------------------------------|
|------------------------------------------||-20-18-16-15-13-12------------------------||-------------------13-12-10-8-7-5-4-2-0---||----------------------------------------4-||------------------------------------------||------------------------------------------|
|-----------------------------------8-||----------------------10-8-(8)---8---||----------------11-12----------9-----||-5-7-9-10-12-13----------------------||-------------------------------------||-------------------------------------|
|-12-15----------------------15--------------------||-------17----------------17----17-----------------||----------17----------17----------17----------17--||-------------17----17----------------17----17-----||----------------18----------------------19--------||--------------------------------------------------|
|----15----------------------15-----------||-17----17----------------17----17--------||----------17----------17----------17-----||-------------17----17----------------17--||----------------18-----------------------||-----------------------------------------|
|-----------------|-----------------------||-----------------|-----------------------||-----------------|-----------------------||-16--17--16--17--|-16--17-16-17-16-17-16-||-----------------|-----------------------||-----------------|-----------------------|
|-------------------------------------------||-------------------------------------------||-------------------------------------------||-17-16-17-16-17-16-17-16-17-16-17-16-17-16-||-------------------------------------------||-------------------------------------------|
|---------------------|---------------||---------------------|---------------||---------------------|---------------||-17-16-17-16-17--16--|-17--16--17----||---------------------|---------------||---------------------|---------------|
Gtr I|-----------------------|---------------------||-----------------------|---------------------||-----------------------|---------------------||-----------------------|--5------------------||-----------------------|--3------------------||-----------------------|---------------------|
|
| Gtr II|-----------------------|---------------------||-----------------------|---------------------||-----------------------|---------------------||-(17)----(17)----15-13-|---------------------||--------------17-------|-15----(15)----15-17-||-----------------------|------------15-------|
|-------------------------------|-----------------||-------------------------------|-----------------||-------------------------------|-----------------||-------------------------------|--5-------3------||--5----------------------------|--3--------------||--3----------------------------|----------6------|
|
|-------------------------------|-----------------||-------------------------------|-----------------||-------------------------------|-----------------||-------------------------------|-----------------||-17h18p17-(17)-18p17h18-17-17--|-15---17-18--20--||-------------------------------|-----------------|
|-------------|-------------|--------------------------------------------------||-------------|-------------|--------------------------------------------------||--3----------|-------------|--------------------------------------------------||--1----------|--3-------4--|--5-----------------------------------------------||-------------|--1-------2--|--3-----------------------------------------------||-------------|-------------|--------------------------------------------------|
|
|-------------|-------------|--------------------------------------------------||-------------|-------------|--------------------------------------------------||-------------|-------------|--------------------------------------------------||-------------|-------------|--------------------------------------------------||-20------22--|-20------20--|-20-18-17-18-17-15-17-15-14-15-14-12-14-12--------||-------------|-------------|-------------------------------------------14-15--|
|-------------------------------------------------||-------------------------------------------------||-------------------------------------------------||-------------------------------------------------||--5----------------------------------------------||--3----------------------------------------------|
|
|-------------------------------------------------||-------------------------------------------------||-------------------------------------------------||-------------------------------------------------||-------------------------------------------------||-14-15-14-15-14-15-14-15-14-15-14-15-14-15-14-15-|
|-------------------------------------------------||-------------------------------------------------||-------------------------------------------------||-------------------------------------------------||--5----------------------------------------------||--3----------------------------------------------|
|
|-------------------------------------------------||-------------------------------------------------||-------------------------------------------------||-13-12-13-12-13-12-13-12-13-12-13-12-13-12-13-12-||-------------------------------------------------||-------------------------------------------------|
|---------------------------------------------||---------------------------------------------||---------------------------------------------||---------------------------------------------||--5----------5----------5----------5---------||--3----3--3--3----3--3--3----3--3--3----3--3-|
|
|-11-10-8-10-11-10-8-10-11-10-8-10-11-10-8-10-||---------------------------------------------||---------------------------------------------||---------------------------------------------||---------------------------------------------||---------------------------------------------|
|-----------------------------------------||-----------------------------------------||-----------------------------------------||-----------------------------------------||--5--5--5--5--5-5-5-5---5--5-5-5-5-5-5-5-||--3--3--3--3--3-3-3-3---3--3-3-3-3-3-3-3-|
|
|-11-13-15-18-18-------(18)---------------||-----------------------------------------||-----------------------------------------||-----------------------------------------||-----------------------------------------||-----------------------------------------|
|-----------------------|-----------------------|-0---------1-0------||-----------------------|-1--0-(0)--1-----------|-1--3-(3)--3-1------||-2--0-(0)--2-----------|-2--0-(0)--2-----------|----4-(4)-----------||-2--0-(0)--2-----------|-----------------------|----------------2---||-------------0-0-0-0-0-|-------------0-0-0-0-0-|----------------0---||-----------------------|-----------------------|--------------------|
|------------------|-----------------------|------------------------||------------------|-----------------------|-1--0-(0)--1------------||------------------|-2--0-(0)--2-----------|-2--0-(0)--2------------||------------------|-2--0-(0)--2-----------|------------------------||-5----------------|-------------0-0-0-0-0-|-------------0-0-0-0-0--||-3----3-3p0-0h3h4-|-----------------------|------------------------|
|-0---------1-0-----|------------|------------------------||-1--3-(3)--3-1-----|------------|------------------------||----4-(4)----------|------------|-2--0-(0)--2------------||----------------2--|------------|-2--0-(0)--2------------||----------------0--|-5----------|-------------0-0-0-0-0--||-------------------|-3------3-4-|------------------------|
|-----------------------|-0---------1-0-----|------------------||-1--0-(0)--1-----------|-1--3-(3)--3-1-----|------------------||-2--0-(0)--2-----------|----4-(4)----------|------------------||-----------------------|----------------2--|------------------||-------------0-0-0-0-0-|----------------0--|-5----------------||-----------------------|-------------------|-3----3-3p0-0h3h4-|
|-----------------------|-----------------------|-0---------1-0------||-----------------------|-1--0-(0)--1-----------|-1--3-(3)--3-1------||-2--0-(0)--2-----------|-2--0-(0)--2-----------|----4-(4)-----------||-2--0-(0)--2-----------|-----------------------|----------------2---||-------------0-0-0-0-0-|-------------0-0-0-0-0-|----------------0---||-----------------------|-----------------------|--------------------|
|----------|----------------------||----------|----------------------||----------|----------------------||----------|----------------------||-5--------|-(5)------------------||-3--------|-(3)------------------|
|
| Gtr II|----------|----------------------||----------|----------------------||----------|----------------------||----------|-17---16--17-16-17-16-||----------|----------------------||----------|----------------------|
|--------------------------------------|--------------------||--------------------------------------|--------------------||--------------------------------------|--------------------||--------------------------------------|--------------------||-(5)----------------------------------|-(5)----------------||-(3)----------------------------------|-(3)----------------|
|
|--------------------------------------|--------------------||--------------------------------------|--------------------||--------------------------------------|--------------------||-17--16-17-16-17-16-17-16-17-16-17-16-|-17--16-17--16--17--||--------------------------------------|--------------------||--------------------------------------|--------------------|
|------------------------*||------------------------*||---------2--0-(0)--2----*||---------2--0-(0)--2----*||-------------------0----*||------------------------*|
|
|------------------------*||------------------------*||------------------------*||-(17)-------------------*||------------------------*||------------------------*|
Tap to rate this tab
 
# A B C D E F G H I J K L M N O P Q R S T U V W X Y Z