Doors - Back Door Man tab

Artist: The Doors
Song: Back Door Man
Tunning: Standard


5(6) = trill
         
|----------------------| |-------------------------| |---------------7b-----| |-------------------------||---------------7b-----| x2 |----------------5(6)-----| x2|----------------------| |-------------------------| |----------------------| |-------------------------||--5-5-5-5-5-5---------| |---5-5-5-5-5-5-----------|
|-------------------------------| |----------------------| |---------------7b--r7----------| |--------------7b------||---------------7b--r7-p5-------| x2 |--------------7b------| x2|--------------------------7----| |----------------------||-------------------------------| |----------------------||--5-5-5-5-5-5------------------| |--5-5-5-5-5-5---------|
|-----------------------------| || |-------------------| |---------------7b--r7--------| ||o |--------------7b---| |---------------7b--r7p5------| || |--------------7b---| x2|--------------------------7--| || |-------------------| |-----------------------------| ||o |-------------------||--5-5-5-5-5-5----------------| || |-5-5-5-5-5-5-------|
|--------------------| |-----------------------| |--------------------| |--------------7b-------| |---------------5(6)-| |--------------7b-------| x3|--------------------| |-----------------------| |--------------------| |-----------------------| |--5-5-5-5-5-5-------| |--5-5-5-5-5-5----------|
|--------------------|-----0--0--0--0--0---|--0--0--0--0--0--0--0--0-||--------------------|-----1--1--1--1--1---|--1--1--1--1--1--1--1--1-||--------6--5--6--4--|-----2--2--2--2--2---|--2--2--0--2--2--2--2--2-||-----5--5--4--4--3--|--0------------------|--0----------------------||-----7--7--6--6--5--|---------------------|-------------------------||--5--5--5--4--4--3--|---------------------|-------------------------|
|----------------------|------------------------||---------------7b-----|---------------7b-------||---------------7b-----|---------------7b-------||----------------------|------------------------||----------------------|------------------------||--5-5-5-5-5-5---------|--5-5-5-5-5-5-------5---|
|----------0-----0----------------10---------10-------||------0------3------------------------13b------------||------1---------------------11-----------------------||------2------------2-1---0---------------------------||-------------------------------------------------12--||---0---------------------------------------------10--|
|-------------------------------------------|----------------5-| |||----------------7b----------------7b-------|----------------5-| o|||----------------7b----------------7b-------|------------------| |||-------------------------------------------|------------------| |||-------------------------------------------|------------------| o|||--5-5-5-5-5-5---------5-5-5-5-5-5----------|--5-5-5-5-5-5-----| ||
|----------------|----------------5----------------------||--7b---------5--|-----------5------------5---5---5----5-||----------------|---7b----------------5b---5----5---5---||----------------|-------7-------------------------------||----------------|---------------------------------------||----------------|---------------------------------------|
|----------------------------------------------------------2------------||-------------------------------------------------------1--1----3-------||---7b-p5--------------------------------0h1h2--------------------5-----||-------------7--7-----------0h1h2------------------------------------7-||--------------------0h3------------------------------------------------||-----------------------------------------------------------------------|
|--8-------------------------------------------------------8--------||------10--9b---------------------------5----8b-----5---------------||-------------------------------------5-----------------7-----------||----------------7-7-7-7-7-7-7-7-7-7--------------------------------||-------------------------------------------------------------------||-------------------------------------------------------------------|
|----5--------------------------------------------------------------||--------8b---10------8b-----8---5----------------------------------||------------------9----------------7b--5-----5--7b-----5-----------||-------------------------------------------7--------------7--------||-------------------------------------------------------------------||-------------------------------------------------------------------|
|-------------------------------------------------------------------||----------------------------------------------------------7b-------||----------------------------------------------------------7b-------||--7-7-7-7-7-7-7--------7-7-7-7-7-7-7-------------------------------||-----------------5--------------------5----------------------------||--------------------------------------------5-5-5-5-5-5------------|
|---------------------| |--------------------------||---------------------| x 3 |----------------7b--------||----------------5(6)-| |----------------7b----5---||---------------------| |--------------------------||---------------------| |--------------------------||--5-5-5-5-5-5--------| |----5-5-5-5-5-------------|
|--------------------------------------------------||--------------------------------------------------||------------------------------------5(6)----7b----||----------7-7-7-7-7-7-7-7-7-7-7-------------------||----------7-7-7-7-7-7-7-7-7-7-7-------------------||---5-5----5-5-5-5-5-5-5-5-5-5-5-------------------|
|------------------------------------------------------||----8----------------------------------7b-----5-------||----7p5--------------------------------5b---------7---||---------7-7p5--7-7p5--7------------------------------||----------------------------7-7-7-7-7-----------------||----------------------------5-5-5-5-5-----------------|
|--------------------------------------------------------||-----------------------------------5--------------------||------6-----6-6--5-5--4-4------5------7b-----5-----7b---||------5-----5-5--4-4--3-3------7----------------7-------||--0---7-----7-7--6-6--5-5---5---------------------------||-----------------4-4--3-3-------------------------------|
|--------------------------------------------------------------||--7-------7b----------------7b--------------------7b----------||-----7----7b---5------------7b-p5-----------------7b--5-------||--------7---------------------------7----------------------7--||--------------------------------------------------------------||------------------5-5-5-5-5------------5-5-5-5-5--------------|
|--/12--12----------12-----------------10------10-8--------8--5------------------||--/12--12-----15--------------------------13--------10----------8b--8--5--------||--/13--13--13----------13--12--11--11-------------------------------------7b--7-||-----------------------12--11--10-----------------------------------------------||-----------------------14--13--12-----------------------------------------------||-----------------------12--11--10-----------------------------------------------|
|----------------------8---||----------------------8---||--5-------------------6---||-----7---5--7---------7---||--------------------------||--------------------------|
Tap to rate this tab
 
# A B C D E F G H I J K L M N O P Q R S T U V W X Y Z