Doors - Touch Me tab

A5 E||--5--5--5--5-5--5--5-5-5-5-x-|--5--5--5--5-5--5--5-5-5-5-x-|B||--5--5--5--5-5--5--5-5-5-5-x-|--5--5--5--5-5--5--5-5-5-5-x-|G||--2--2--2--0-2--2--0-2-2-4-x-|--2--2--2--0-2--2--0-2-2-4-x-|D||-----------------------------|-----------------------------|A||-----------------------------|-----------------------------|E||-----------------------------|-----------------------------|
--5--5--5--5-5--5--5-5-5-5-x-|--5--5--5--5-5--5--5-5-5-5-x-|--5--5--5--5-5--5--5-5-5-5-x-|--5--5--5--5-5--5--5-5-5-5-x-|--2--2--2--0-2--2--0-2-2-4-x-|--2--2--2--0-2--2--0-2-2-4-x-|-----------------------------|-----------------------------|-----------------------------|-----------------------------|-----------------------------|-----------------------------|
--5--5--5--5-5--5--5-5-5-5-x-|--5--5--5--5-5--5--5-5-5-5-x-|--5--5--5--5-5--5--5-5-5-5-x-|--5--5--5--5-5--5--5-5-5-5-x-|--2--2--2--0-2--2--0-2-2-4-x-|--2--2--2--0-2--2--0-2-2-4-x-|-----------------------------|-----------------------------|-----------------------------|-----------------------------|-----------------------------|-----------------------------|
Amadd9 G --7--7--7--7-7--7--7-7-7-7--|--7----------------|--3------3----x-x-3-3-x-x-|--5--5--5--5-5--5--5-5-5-5--|--5----------------|--3------3----x-x-3-3-x-x-|--5--5--5--5-5--5--5-5-5-5--|--5----------------|--4------4----x-x-4-4-x-x-|--7--7--7--7-7--7--7-7-7-7--|--7----------------|--5------5--------5-5-----|----------------------------|-------------------|--5------5----------------|----------------------------|-------------------|--3------3----------------|
D/B --2---2-2-2-2---x-2-2-2----|----3-----3-----3-----3-----3--|--3---3-3-3-3---x-3-3-3----|------3h5---3h5---3h5---3h5----|--2---2-2-2-2---x-2-2-2----|-------------------------------|--4---4-4-4-4---------4----|-------------------------------|--2---2-2-2-2---------2----|-------------------------------|---------------------------|-------------------------------|
A# ------6-----6-----6-----6-----6--|--6--6--6--6-6--6--6-6-6-6--|--6h8---6h8---6h8---6h8---6h8----|--6--6--6--6-6--6--6-6-6-6--|---------------------------------|--7--7--7--7-7--7--7-7-7-7--|---------------------------------|--8--8--8--8-8--8--8-8-8-8--|---------------------------------|----------------------------|---------------------------------|----------------------------|
F/D ---------------------------|--------6-----6-----6-------6--|--6--6--6--6-6--6--6-6--6--|----6h8---6h8---6h8---8h6h8----|--5--5--5--5-5--5--5-5--5--|-------------------------------|--7--7--7--7-7--7--7-7--7--|-------------------------------|--5--5--5--5-5--5--5-5--5--|-------------------------------|---------------------------|-------------------------------|
C# -------9------9------9------9------9--|--9---9---9---9--9---9---9--9---x-x-|--9h11---9h11---9h11---9h11---9h11----|--9---9---9---9--9---9---9--9---x-x-|--------------------------------------|--10--10--10--10-10--10--10-10--x-x-|--------------------------------------|--11--11--11--11-11--11--11-11------|--------------------------------------|--11--11--11--11-11--11--11-11------|--------------------------------------|--9---9---9---9--9---9---9--9-------|
C# Gb Fm --9---9---9---9--9---9---9--------|--2----------------|--1----------------|--9---9---9---9--9---9---9--------|--2----------------|--1----------------|--10--10--10--10-10--10--10-------|--3----------------|--1----------------|--11--11--11--11-11--11--11-9/----|--4----------------|--3----------------|--11--11--11--11-11--11--11-11/---|--4----------------|--3----------------|--9---9---9---9--9---9---9--9/----|--2----------------|--1----------------|
Gb Ab Db Gb --2--------4--------|--9---9---9---9--9---9---9--9-----|--2----------------|--2--------4--------|--9---9---11--9--9---9---9--9-----|--2----------------|--3--------5--------|--10--10--10--10-10--10--10-10----|--3----------------|--4--------6--------|--11--11--11--11-11--11--11-11----|--4----------------|--4--------6--------|----------------------------------|--4----------------|--2--------4--------|----------------------------------|--2----------------|
Fm Gb Ab Gb Gb Gb Gb --1----------------|--2--------4--------|--2----2----2----2----|--1----------------|--2--------4--------|--2----2----2----2----|--1----------------|--3--------5--------|--3----3----3----3----|--3----------------|--4--------6--------|--4----4----4----4----|--3----------------|--4--------6--------|--4----4----4----4----|--1----------------|--2--------4--------|--2----2----2----2----|
Db Db --9---9---9---9--9---9---9--9---x-x-|--9---9---9---9--9---9---9--------|--9---9---9---9--9---9---9--9---x-x-|--9---9---11--9--9---9---9--------|--10--10--10--10-10--10--10-10--x-x-|--10--10--10--10-10--10--10-------|--11--11--11--11-11--11--11-11------|--11--11--11--11-11--11--11-11/---|------------------------------------|----------------------------11/---|------------------------------------|----------------------------9/----|
Am Am Am Am Am Am Am Am AmAmAm ------------------|--5--5--5--x-5--5-------|--5--5--5--x-5---------|------------------|--5--5--5--x-5--5-------|--5--5--5--x-5---------|------------------|--5--5--5--x-5--5-------|--5--5--5--x-5---------|------------------|--7--7--7--x-7--7-------|--7--7--7--x-7---------|------------------|------------------------|-----------------------|------------------|------------------------|-----------------------|
--5--5--5--5-5--5--5-5-5-x-x-|--5--5--5--5-5--5--5-5-5-x-x-|--5--5--5--5-5--5--5-5-5-x-x-|--5--5--5--5-5--5--5-5-5-x-x-|--5--5--5--5-5--5--5-5-5-x-x-|--5--5--5--5-5--5--5-5-5-x-x-|--7--7--7--7-7--7--7-7-7-----|--7--7--7--7-7--7--7-7-7-----|-----------------------------|-----------------------------|-----------------------------|-----------------------------|
AmaAmaAmaAmAmAAmAAmAmAmadd9 --7--7--7--7-7--7--7-7-7-x-x-|--7--7--7--7-7--7--7-7--5--|--7----------------|--5--5--5--5-5--5--5-5-5-x-x-|--5--5--5--5-5--5--5-5--5--|--5----------------|--5--5--5--5-5--5--5-5-5-x-x-|--5--5--5--5-5--5--5-5--5--|--5----------------|--7--7--7--7-7--7--7-7-7-----|--7--7--7--7-7--7--7-7--7--|--7----------------|-----------------------------|---------------------------|-------------------|-----------------------------|---------------------------|-------------------|
G D/B --3------3----x-x-3-3-x-x-|--2---2-2-2-2---x-2-2-2----|--3------3----x-x-3-3-x-x-|--3---3-3-3-3---x-3-3-3----|--4------4----x-x-4-4-x-x-|--2---2-2-2-2---x-2-2-2----|--5------5--------5-5-----|--4---4-4-4-4---------4----|--5------5----------------|--2---2-2-2-2---------2----|--3------3----------------|---------------------------|
----3-----3-----3-----3-----3--|------6-----6-----6-----6-----6--|------3h5---3h5---3h5---3h5----|--6h8---6h8---6h8---6h8---6h8----|-------------------------------|---------------------------------|-------------------------------|---------------------------------|-------------------------------|---------------------------------|-------------------------------|---------------------------------|
A# F/D --6--6--6--6-6--6--6-6-6-6--|---------------------------|--6--6--6--6-6--6--6-6-6-6--|--6--6--6--6-6--6--6-6--6--|--7--7--7--7-7--7--7-7-7-7--|--5--5--5--5-5--5--5-5--5--|--8--8--8--8-8--8--8-8-8-8--|--7--7--7--7-7--7--7-7--7--|----------------------------|--5--5--5--5-5--5--5-5--5--|----------------------------|---------------------------|
--------6-----6-----6-------6--|-------9------9------9------9------9--|----6h8---6h8---6h8---8h6h8----|--9h11---9h11---9h11---9h11---9h11----|-------------------------------|--------------------------------------|-------------------------------|--------------------------------------|-------------------------------|--------------------------------------|-------------------------------|--------------------------------------|
C# C# --9---9---9---9--9---9---9--9---x-x-|--9---9---9---9--9---9---9--------|--9---9---9---9--9---9---9--9---x-x-|--9---9---9---9--9---9---9--------|--10--10--10--10-10--10--10-10--x-x-|--10--10--10--10-10--10--10-------|--11--11--11--11-11--11--11-11------|--11--11--11--11-11--11--11-9/----|--11--11--11--11-11--11--11-11------|--11--11--11--11-11--11--11-11/---|--9---9---9---9--9---9---9--9-------|--9---9---9---9--9---9---9--9/----|
Gb Fm Gb Ab --2----------------|--1----------------|--2--------4--------|--2----------------|--1----------------|--2--------4--------|--3----------------|--1----------------|--3--------5--------|--4----------------|--3----------------|--4--------6--------|--4----------------|--3----------------|--4--------6--------|--2----------------|--1----------------|--2--------4--------|
Db Gb Fm --9---9---9---9--9---9---9--9-----|--2----------------|--1----------------|--9---9---11--9--9---9---9--9-----|--2----------------|--1----------------|--10--10--10--10-10--10--10-10----|--3----------------|--1----------------|--11--11--11--11-11--11--11-11----|--4----------------|--3----------------|----------------------------------|--4----------------|--3----------------|----------------------------------|--2----------------|--1----------------|
Gb Ab Gb Gb Gb Gb --2--------4--------|--2----2----2----2----|--2--------4--------|--2----2----2----2----|--3--------5--------|--3----3----3----3----|--4--------6--------|--4----4----4----4----|--4--------6--------|--4----4----4----4----|--2--------4--------|--2----2----2----2----|
Db Db --9---9---9---9--9---9---9--9---x-x-|--9---9---9---9--9---9---9--------|--9---9---9---9--9---9---9--9---x-x-|--9---9---11--9--9---9---9--------|--10--10--10--10-10--10--10-10--x-x-|--10--10--10--10-10--10--10-------|--11--11--11--11-11--11--11-11------|--11--11--11--11-11--11--11-11/---|------------------------------------|----------------------------11/---|------------------------------------|----------------------------9/----|
------------------|------------------|------------------|------------------|------------------|------------------|------------------|------------------|------------------|------------------|------------------|------------------|------------------|------------------|------------------|------------------|------------------|------------------|------------------|------------------|------------------|------------------|------------------|------------------|
Gb Fm Gb Gb Ab Ab --2----------------|--1----------------|--2----2----4----4----|--2----------------|--1----------------|--2----2----4----4----|--3----------------|--1----------------|--3----3----5----5----|--4----------------|--3----------------|--4----4----6----6----|--4----------------|--3----------------|--4----4----6----6----|--2----------------|--1----------------|--2----2----4----4----|
Gb Gb Gb Gb Db --2----2----2----2----|--9---9--------9---9---9--------|--2----2----2----2----|--9---9---11---9---9---9--11----|--3----3----3----3----|--10--10--11---10--10--10-11----|--4----4----4----4----|--11--11--11---11--11--11-11----|--4----4----4----4----|--------------------------------|--2----2----2----2----|--------------------------------|
Db --9---9--------9---9---9--------|------------------|------------------|--9---9---11---9---9---9--11----|------------------|------------------|--10--10--11---10--10--10-11----|------------------|------------------|--11--11--11---11--11--11-11----|------------------|------------------|--------------------------------|------------------|------------------|--------------------------------|------------------|------------------|
A5 --5--5--5--5-5--5--5-5-5-5-x-|--5--5--5--5-5--5--5-5-5-5-x-|--5--5--5--5-5--5--5-5-5-5-x-|--5--5--5--5-5--5--5-5-5-5-x-|--2--2--2--0-2--2--0-2-2-4-x-|--2--2--2--0-2--2--0-2-2-4-x-|-----------------------------|-----------------------------|-----------------------------|-----------------------------|-----------------------------|-----------------------------|
A5 --5--5--5--5-5--5--5-5-5-5-x-|--5--5--5--5-5--5--5-5-5-5-x-|--5--5--5--5-5--5--5-5-5-5-x-|--5--5--5--5-5--5--5-5-5-5-x-|--2--2--2--0-2--2--0-2-2-4-x-|--2--2--2--0-2--2--0-2-2-4-x-|-----------------------------|-----------------------------|-----------------------------|-----------------------------|-----------------------------|-----------------------------|
A5 --5--5--5--5-5--5--5-5-5-5-x-|--5--5--5--5-5--5--5-5-5-5-x-|--5--5--5--5-5--5--5-5-5-5-x-|--5--5--5--5-5--5--5-5-5-5-x-|--2--2--2--0-2--2--0-2-2-4-x-|--2--2--2--0-2--2--0-2-2-4-x-|-----------------------------|-----------------------------|-----------------------------|-----------------------------|-----------------------------|-----------------------------|
A5 --5--5--5--5-5--5--5-5-5-5-x-|--5--5--5--5-5--5--5-5-5-5-x-|--5--5--5--5-5--5--5-5-5-5-x-|--5--5--5--5-5--5--5-5-5-5-x-|--2--2--2--0-2--2--0-2-2-4-x-|--2--2--2--0-2--2--0-2-2-4-x-|-----------------------------|-----------------------------|-----------------------------|-----------------------------|-----------------------------|-----------------------------|
A5 --5--5--5--5-5--5--5-5-5-5-x-|--5--5--5--5-5--5--5-5-5-5-x-|--5--5--5--5-5--5--5-5-5-5-x-|--5--5--5--5-5--5--5-5-5-5-x-|--2--2--2--0-2--2--0-2-2-4-x-|--2--2--2--0-2--2--0-2-2-4-x-|-----------------------------|-----------------------------|-----------------------------|-----------------------------|-----------------------------|-----------------------------|
A5 --5--5--5--5-5--5--5-5-5-5-x-|--5--5--5--5-5--5--5-5-5-5-x-|--5--5--5--5-5--5--5-5-5-5-x-|--5--5--5--5-5--5--5-5-5-5-x-|--2--2--2--0-2--2--0-2-2-4-x-|--2--2--2--0-2--2--0-2-2-4-x-|-----------------------------|-----------------------------|-----------------------------|-----------------------------|-----------------------------|-----------------------------|
A5 --5--5--5--5-5--5--5-5-5-5-x-|--5--5--5--5-5--5--5-5-5-5-x-|--5--5--5--5-5--5--5-5-5-5-x-|--5--5--5--5-5--5--5-5-5-5-x-|--2--2--2--0-2--2--0-2-2-4-x-|--2--2--2--0-2--2--0-2-2-4-x-|-----------------------------|-----------------------------|-----------------------------|-----------------------------|-----------------------------|-----------------------------|
A5 --5--5--5--5-5--5--5-5-5-5-x-|--5--5--5--5-5--5--5-5-5-5-x-|--5--5--5--5-5--5--5-5-5-5-x-|--5--5--5--5-5--5--5-5-5-5-x-|--2--2--2--0-2--2--0-2-2-4-x-|--2--2--2--0-2--2--0-2-2-4-x-|-----------------------------|-----------------------------|-----------------------------|-----------------------------|-----------------------------|-----------------------------|
A5 --5--5--5--5-5--5--5-5-5-5-x-|--5--5--5--5-5--5--5-5-5-5-x-|--5--5--5--5-5--5--5-5-5-5-x-|--5--5--5--5-5--5--5-5-5-5-x-|--2--2--2--0-2--2--0-2-2-4-x-|--2--2--2--0-2--2--0-2-2-4-x-|-----------------------------|-----------------------------|-----------------------------|-----------------------------|-----------------------------|-----------------------------|
--5--5--5--5-5--5--5-5-5-5-x-|--5--5--5--5-5--5--5-5-5-5-x-|--5--5--5--5-5--5--5-5-5-5-x-|--5--5--5--5-5--5--5-5-5-5-x-|--2--2--2--0-2--2--0-2-2-4-x-|--2--2--2--0-2--2--0-2-2-4-x-|-----------------------------|-----------------------------|-----------------------------|-----------------------------|-----------------------------|-----------------------------|
--5--5--5--5-5--5--5-5-5-5-x-|--5--5--5--5-5--5--5-5-5-5-x-|--5--5--5--5-5--5--5-5-5-5-x-|--5--5--5--5-5--5--5-5-5-5-x-|--2--2--2--0-2--2--0-2-2-4-x-|--2--2--2--0-2--2--0-2-2-4-x-|-----------------------------|-----------------------------|-----------------------------|-----------------------------|-----------------------------|-----------------------------|
--5--5--5--5-5--5--5-5-5-5-x-|--5--5--5--5-5--5--5-5-5-5-x-|--5--5--5--5-5--5--5-5-5-5-x-|--5--5--5--5-5--5--5-5-5-5-x-|--2--2--2--0-2--2--0-2-2-4-x-|--2--2--2--0-2--2--0-2-2-4-x-|-----------------------------|-----------------------------|-----------------------------|-----------------------------|-----------------------------|-----------------------------|
--5--5--5--5-5--5--5-5-5-5-x-|--5--5--5--5-5--5--5-5-5-5-x-|--5--5--5--5-5--5--5-5-5-5-x-|--5--5--5--5-5--5--5-5-5-5-x-|--2--2--2--0-2--2--0-2-2-4-x-|--2--2--2--0-2--2--0-2-2-4-x-|-----------------------------|-----------------------------|-----------------------------|-----------------------------|-----------------------------|-----------------------------|
--5--5--5--5-5--5--5-5-5-5-x-|--5--5--5--5-5--5--5-5-5-5-x-|--5--5--5--5-5--5--5-5-5-5-x-|--5--5--5--5-5--5--5-5-5-5-x-|--2--2--2--0-2--2--0-2-2-4-x-|--2--2--2--0-2--2--0-2-2-4-x-|-----------------------------|-----------------------------|-----------------------------|-----------------------------|-----------------------------|-----------------------------|
--5--5--5--5-5--5--5-5-5-5-x-|--5--5--5--5-5--5--5-5-5-5-x-|--5--5--5--5-5--5--5-5-5-5-x-|--5--5--5--5-5--5--5-5-5-5-x-|--2--2--2--0-2--2--0-2-2-4-x-|--2--2--2--0-2--2--0-2-2-4-x-|-----------------------------|-----------------------------|-----------------------------|-----------------------------|-----------------------------|-----------------------------|
--5--5--3--5----------||--5--5--3--5----------||----------------------||--7--7--5--7----------||----------------------||----------------------||
Tap to rate this tab
 
# A B C D E F G H I J K L M N O P Q R S T U V W X Y Z