Downset – Eyes Shut Tight tab

t. See http://www.olga.net/faq/ for more information.                     #
#-----------------------------------------------------------------------------#

From: "richard lynch" 
Subject: d/downset/eyes_shut_tight.tab
Date: Sat, 18 Sep 1999 14:48:52 EDT

Song- Eyes Shut Tight
Artist- Downset
Tabbed by- Richard Lynch

Dropped d tuning then another half a step down.  {C#, G#, C#, F#, A#, D#}
/slide up
\slide down
h hammer on
p pull off

I cant get the intro part so heres the verse riff:
| 
|-----------------------------------------------------------------------------|
| 
|-----------------------------------------------------------------------------|
| 
|-----------------------------------------------------------------------------|
| 
|--10-12---5-7-------3--5--3--0--------10-12---5-7----3------------3-p-0------|
| 
|--10-12---5-7-------3--5--3--0--------10-12---5-7----3--0-3-h-5---------3-h-5|
| 
|--10-12---5-7--0---3--5--3--0----0---10-12---5-7--0--3-----------------------|

| 
|-----------------------------------------------------------------------------|
| 
|-----------------------------------------------------------------------------|
| 
|-----------------------------------------------------------------------------|
| 
|--10-12---5-7-----3--5--3--0--------10-12---5-7-----3------3-----------------|
| 
|--10-12---5-7------3--5--3-0--------10-12---5-7-----3--5-----5-p-3-p-0-------|
| 
|--10-12---5-7--0--3--5--3--0----0--10-12---5-7--0--3---------------------5-3-|

Play this twice and then it changes to this (below)

| 
|-----------------------------------------------------------------------------|
| 
|-----------------------------------------------------------------------------|
| 
|-----------------------------------------------------------------------------|
| 
|---8-7-5-7-5-7---8-7-5-7-7-7---8-7-5-7-5-7-8-8-8/10-10-----------=-----------|
| 
|---8-7-5-7-5-7---8-7-5-7-7-7---8-7-5-7-5-7-8-8-8/10-10-----------------------|
| 
|---8-7-5-7-5-7---8-7-5-7-7-7---8-7-5-7-5-7-8-8-8/10-10-----------------------|

Bridge:
| 
|-----------------------------------------------------------------------------|
| 
|-----------------------------------------------------------------------------|
| 
|-----------------------------------------------------------------------------|
| 
|-----------------------------------------------------------------------------|
| 
|----------5-5-p-3-0-3-0------------------------5-5-p-3-0-3-0-----------------|
| 
|--0--3-5---------------5-0-3-h-5-p-3---0--3-5---------------5--0--3-h-5-p-1--|

Then play the verse again without the verse change. Then play this...Pre Breakdown:| |--------------------------------------------------------------------|| |--------------------------------------------------------------------|| |--------------------------------------------------------------------|| |---0--0--0--0--0--0--0--0--0------------------------------------|| |---0--0--0--0--0--0--0--0--0------------------------------------|| |---0--0--0--0--0--0--0--0--0------------------------------------|
| |------------------------------------------------------------|| |------------------------------------------------------------|| |------------------------------------------------------------|| |------------------------------------------------------------|| |--0-2-3-0--*-*-*-*--5\3--2--3----0-2-3-0----------|| |--0-2-3-0--*-*-*-*--5\3--2--3----0-2-3-0----------|
| |----------------------------------------------------------------------------| | |---3--3--3--3-3-------------------------------------------------------------| | |--------------------2--2--2--2--2-------------------------------------------| | |----------------------------------------------------------------------------| | |----------------------------------------------------------------------------| | |----------------------------------------------------------------------------|
| |----------------------------|| |---3-----------1------------|| |-------2--3-------3--2-----|| |-----------------------------|| |-------------------------------|| |------------------------------|
|------------------------------------------------------------------------------|------------------------------------------------------------------------------|------------------------------------------------------------------------------|---10-12-10-12-10-12-10-12-10-13--10-12-10-12-10-12---------------------------|---10-12-10-12-10-12-10-12-10-13--10-12-10-12-10-12------------3-p0----------| |---10-12-10-12-10-12-10-12-10-13--10-12-10-12-10-12--0-3-h-5---------5--------
Then, to finish you do this: | |------------------------------------------------------------------------------ | |----3--3--3--3--3------------------------------------------------------------- | |---------------------2--2--2--2--2-------------------------------------------- | |------------------------------------------------------------------------------ | |------------------------------------------------------------------------------ | |------------------------------------------------------------------------------
Please rate this tab:
x1.0