Acid Rain tab with lyrics by Dri - Easy chords and tabs for guitar

Dri – Acid Rain tab

|------------------------||------------------------||------------------------||-3----------------------||-3----------------------||-1--1-1-1--1-1-1--1-1-1-|
|------------------------------------------------------------------------||------------------------------------------------------------------------||-----------------------------------------4------------------------------||-3---------5-6--3-6/5-3-5-6-------3-3-3--4--4--4-3----------------------||-3---------5-6--3-6/5-3-5-6-------3-3-3--2--4--4-3----------------------||-1--1-1-1--3-4--1-4/3-1-3-4--0-1--1-1-1-----2--2-1--1-1-1--1-1-1--1-1-1-|
|--------------------------------------------------||--------------------------------------------------||---------------------6-5-4--4-4-4--4--4-4-4--5-9--||-3---------5---------6-5-4--4-4-4--4--4-4-4--5-9--||-3---------5---------4-3-2--2-2-2--2--2-2-2--3-7--||-1--1-1-1--3--0-0-0-------------------------------|
|--------------------------------------------------||--------------------------------------------------||---------------------6-5-4--4-4-4--4--4-4-4--4----||-----------5---------6-5-4--4-4-4--4--4-4-4--4----||-----------5---------4-3-2--2-2-2--2--2-2-2--2----||----0-0-0--3--0-0-0-------------------------------|
|------------------------------------------||------------------------------------------||------------------------------------------||-6---------5---------5/6---------5--5-5-5-||-6---------5---------5/6---------5--5-5-5-||-4--0-0-0--3--0-0-0--3/4--0-0-0--3--3-3-3-|
|------------------------------------------||------------------------------------------||------------------------------------------||-6---------5---------5/6---------5--5-5-5-||-6---------5---------5/6---------5--5-5-5-||-4--0-0-0--3--0-0-0--3/4--0-0-0--3--3-3-3-|
|------------------------------------------------------------------------||------------------------------------------------------------------------||-----------------------------------------4------------------------------||-3---------5-6--3-6/5-3-5-6-------3-3-3--4--4--4-3----------------------||-3---------5-6--3-6/5-3-5-6-------3-3-3--2--4--4-3----------------------||-1--1-1-1--3-4--1-4/3-1-3-4--0-1--1-1-1-----2--2-1--1-1-1--1-1-1--1-1-1-|
verse|------------------------------------------------------------------------||------------------------------------------------------------------------||-----------------------------------------4------------------------------||-3---------5-6--3-6/5-3-5-6-------3-3-3--4--4--4-3----------------------||-3---------5-6--3-6/5-3-5-6-------3-3-3--2--4--4-3----------------------||-1--1-1-1--3-4--1-4/3-1-3-4--0-1--1-1-1-----2--2-1--1-1-1--1-1-1--1-1-1-|
|-------------------------------------||-------------------------------------||----------------------------4-3------||-3-3-3-3--4-4-4-4--3-3-3-3--4-3--3-4-||-3-3-3-3--4-4-4-4--3-3-3-3--2-1--3-4-||-1-1-1-1--2-2-2-2--1-1-1-1-------1-2-|
|-------------------------------------------------------------------||-------------------------------------------------------------------||-3-3-3-3-3-3-3--4-4--3-3-3-3-3-3-3-3-3-3--4-4-4-4-4-4-4-4--6--4--3-||-3-3-3-3-3-3-3--4-4--3-3-3-3-3-3-3-3-3-3--4-4-4-4-4-4-4-4--6--4--3-||-1-1-1-1-1-1-1--2-2--1-1-1-1-1-1-1-1-1-1--2-2-2-2-2-2-2-2--4--2--1-||-------------------------------------------------------------------|
|------------------------------------------------------------------||------------------------------------------------------------------||-3-3-3-3-3-3-3--4-4--3-3-3-3-3-3-3-3-3-3--4---4---4---4---6--4--3-||-3-3-3-3-3-3-3--4-4--3-3-3-3-3-3-3-3-3-3--4---4---4---4---6--4--3-||-1-1-1-1-1-1-1--2-2--1-1-1-1-1-1-1-1-1-1--2---2---2---2---4--2--1-||------------------------------------------------------------------|
|-------------------------------------||-------------------------------------||----------------------------4-3------||-3-3-3-3--4-4-4-4--3-3-3-3--4-3--3-4-||-3-3-3-3--4-4-4-4--3-3-3-3--2-1--3-4-||-1-1-1-1--2-2-2-2--1-1-1-1-------1-2-|
|-------------------------------------------------------------------||-------------------------------------------------------------------||-3-3-3-3-3-3-3--4-4--3-3-3-3-3-3-3-3-3-3--4-4-4-4-4-4-4-4--6--4--3-||-3-3-3-3-3-3-3--4-4--3-3-3-3-3-3-3-3-3-3--4-4-4-4-4-4-4-4--6--4--3-||-1-1-1-1-1-1-1--2-2--1-1-1-1-1-1-1-1-1-1--2-2-2-2-2-2-2-2--4--2--1-||-------------------------------------------------------------------|
|-------------------------------------------------------------------||-------------------------------------------------------------------||-3-3-3-3-3-3-3--4-4--3-3-3-3-3-3-3-3-3-3--4-4-4-4-4-4-4-4--6--4--3-||-3-3-3-3-3-3-3--4-4--3-3-3-3-3-3-3-3-3-3--4-4-4-4-4-4-4-4--6--4--3-||-1-1-1-1-1-1-1--2-2--1-1-1-1-1-1-1-1-1-1--2-2-2-2-2-2-2-2--4--2--1-||-------------------------------------------------------------------|
|-------------------------------------||-------------------------------------||----------------------------4-3------||-3-3-3-3--4-4-4-4--3-3-3-3--4-3--3-4-||-3-3-3-3--4-4-4-4--3-3-3-3--2-1--3-4-||-1-1-1-1--2-2-2-2--1-1-1-1-------1-2-|
|--------------------------------------------------||--------------------------------------------------||---------------------6-5-4--4-4-4--4--4-4-4--5-9--||-3---------5---------6-5-4--4-4-4--4--4-4-4--5-9--||-3---------5---------4-3-2--2-2-2--2--2-2-2--3-7--||-1--1-1-1--3--0-0-0-------------------------------|
|--------------------------------------------------||--------------------------------------------------||---------------------6-5-4--4-4-4--4--4-4-4--4----||-----------5---------6-5-4--4-4-4--4--4-4-4--4----||-----------5---------4-3-2--2-2-2--2--2-2-2--2----||----0-0-0--3--0-0-0-------------------------------|
|------------------------------------------||------------------------------------------||------------------------------------------||-6---------5---------5/6---------5--5-5-5-||-6---------5---------5/6---------5--5-5-5-||-4--0-0-0--3--0-0-0--3/4--0-0-0--3--3-3-3-|
|------------------------------------------||------------------------------------------||------------------------------------------||-6---------5---------5/6---------5--5-5-5-||-6---------5---------5/6---------5--5-5-5-||-4--0-0-0--3--0-0-0--3/4--0-0-0--3--3-3-3-|
pm......|------------------------||------------------------||------------------------||-3----------------------||-3----------------------||-1--1-1-1--1-1-1--1-1-1-|
|----------------------||----------------------||----------------------||-3--------------------||-3--------------------||-1--------------------|
Please rate this tab:
x1.0