Dying Fetus - Blunt Force Trauma tab

Dying Fetus
Blunt Force Trauma
Purification Through Violence
www.dyingfetus.com
Tabbed by Sean Beasley and Mike Kimball

(4x)---------------------------------|---------------------------------|---------------------------------|---------------------------------|-3-------3-------3---------------|-1---0-0-1---0-0-1---0-0-0-0-0-0-|
(4x trem picked, 4x double picked)-----------------------------------|-----------------------------------|-----------------------------------|-----------------------------------|-4-------5-------3-----------------|-2---0-0-3---0-0-1---0-0-2-3-2-1-0-|
(5x)----------------------------------------------------------------------------------------------------------------------------7-5-4---------------7-5-4----------------------7-5-4-4---2---------7-5-4-4---2----------------2---0---------------2---0---
------------------------------|------------------------------|------------------------------|-7-5-4------------------------|-------7-5-4-4---2---4------5-|-------------2---0---2------3-|
(3x with ending, 1x without-----------------------------------------------------------------------------------------------------------------------------4-2-4/6-2-2-2-2-4-3-4-5-4-3-4--2-0-2/4-0-0-0-0-2-1-2-3-2-1-2-
...ending)------------------------------------|------------------------------------|------------------------------------|-------4-6-----6-7-----4-6-----6-7--|-3-----6-8-----8-9-----6-8-----8-9--|-1-0000----0000----0000----0000-----|
(3x with ending, 1x without-----10-14-10-----------------10-14-10---------------12-----------------------12---------------------12-----------------------12------------------------------------------------------------5555------------------------------------------------------------------------33332222222-----------------222222--
...ending) -----10-14-10-------------|---------------------|---12---------------------|---------------------|-12-----------------------|-6-9-6-----------6-9-|--------------------------|-------7-5-4-5-7-----|--------------------------|---------------------|--------------55554444444-|---------------------|
(4x)-------------------------------------------------------|----------------------------8-11-8---------9-12-9------|---6-9-6---4-7-4---6-9-6---9-------9-8---10-------10-9-|--7-------5-------7------11------------12--------------|-7-------5-------7-------------------------------------|-------------------------------------------------------|
(6x)-----------------|-----------------|-----------------|-----------------|-5-4-2-6-5-2---4-|-3-2-0-4-3-0-332-|
(1x)----------------------------------------------------------------------------------------------------------------------------------------------8-777-----------10999-----------8-777----4-0-6-555---4---4-0-8-777---4---4-0-6-555--332---------332-332---------332-332---------
-----------------------------------------------------------|-t------t--------------------t------t----------------------|-12-5-8-12-5-8-t------t------11-4-7-11-4-7-t------t--------|---------------12-5-8-12-5-8---------------11-4-7-11-4-7---|---------------------------------------------------------2-|---------------------------------------------------------0-|
(14x)---------------------------------|---------------------------------|---------------------------------|---------------------------------|-2-2-4-2-5-4-2-8-7-2-5-2-5-2-4-5-|-0-0-2-0-3-2-0-6-5-0-3-0-3-0-2-3-|
(2x, repeated 1.5x after next riff)----------------------------------------------------------------------------------------------------------------------------------------------------------------9---------------9-------------------9----------------8-------4-5-4-3-8-------------------8-------4-5-4-3----------2-3-2-1---------2-4-6-2-4-6---------2-3-2-1- tr...... tr..........................
----------10-14-10----------------------------|-------12----------12----------11-14-11-------|----12----------------11----12----------12-11-|-14----------------------14-------------------|----------------------------------------------|----------------------------------------------|
(2x)---------------------------------------------------------------------------------------------------------------------------------------------------------------------------------------------------------------------------------------------------------------------5-4-2-2-2-2-2-2-5-4-2-7-5-2-5-4-5-4-2-2-2-2-2-2-------7p4--------3-2-0-0-0-0-0-0-3-2-0-5-3-0-3-2-3-2-0-0-0-0-0-0-5p4-0-----0-5p4-
------------------------------------------------------------------|------------------------------------------------------------------|------------------------------------------------------------------|-----------------------------------------4444----------------3333-|-5-4-2-2-2-2-2-2-5-4-2-7-5-2-5---------------3333--------2222-----|-3-2-0-0-0-0-0-0-3-2-0-5-3-0-3---22222222--------11111111---------|
(alt. end to prev. riff)----------10-14-10-----------------------10-14-10--------------|-------12----------12-----------------12----------12-----------|----12----------------12-----------12----------------12--------|-14-----------------------------14-----------------------------|--------------------------6-7----------------------------8---9-|--------------------------8-9----------------------------6---7-|
(3.5x)---------------------------------------------------------------------------------------------------------------------------------------------------------------------------------------------------------4---------------5---------------3-----------------6---0-----------7---0-----------1---0-------0---- tr.......... tr.......... tr......
-----------------------------------|-----------------------------------|-----------------------------------|-------------4-5-7-5-4-------------|-------4-5-7-----------7-5-4-------|-4-5-7-----------------------7-5-4-|
(6x)---------------------------------|---------------------------------|---------------------------------|-----------------4-----4-6---4-2-|-2-2-2-2-2-2-2-2-2-5---2-4---2-0-|-0-0-0-0-0-0-0-0---3-0-----0-----|
(3x)----------------------------------------------------------------------------------------------------------------------------------------------------------------9-11-------------------------------------------9-11-12-------4-4-4-4-5\4-4-4-3/4-4-4-5-4-4-4---7-9-10---------------2-2-2-2-3\2-2-2-1/2-2-2-3-2-2-2-----------------------
------------------------------------------------p------------|----------------------------------------------14-11---p---13-|-12-11-9--------------------------------11-13-------13-11----|---------12-11-9---------------11-13-14----------------------|-----------------12-9-11-13-14-------------------------------|-------------------------------------------------------------|
(6x)---------------------------------------------------------------|---------------------------------------------------------------|---------------------------------------------------------------|---------4-------------------------------4---------------------|-4/5-2-5-2---2-2-5\4-5---6\5-6---4/5-2-5-2---2-2-5-4-5---2-1-2-|-2/3-0-3-----0-0-3\2-3---4\3-4---2/3-0-3-----0-0-3-2-3---4-3-4-|
(4x)---------------------------------------------stop--|---------------------------------------------last--|---------------------------------------------time--|--------------------------------9---10-9------|----|-2--2-2-5\4--2-2-2-2--5\4/5/7\5---7------10---9-10-|-0--0-0-3\2--0-0-0-0--3\2/3/5\3-------------7------| tr.................
(4x)---------------------------------------------------------------------|---------------------------------------------------------------------|---------------------------------------------------------------------|---------------------------------------------------------------------|-2---2-2-5\4-2-2-2-2-5\4-5/7-5---2---2-2-5\4-2-2-2-2-2-2-----2-2-----|-0---0-0-3\2-0-0-0-0-3\2-3/5-3---0---0-0-3\2-0-0-0-0-0-0-3---0-0-3---|
(end)--------------|--------------|--------------|--------------|-2------------|-0------------|
Tap to rate this tab
 
# A B C D E F G H I J K L M N O P Q R S T U V W X Y Z