Somethin Else tab ver. 2 with lyrics by Eddie Cochran - Easy chords and tabs for guitar

Eddie Cochran – Somethin Else tab ver. 2

here's how i play it. in the key of A. 
the formatting's a little off becuase i wanted you to be able to 
read the lyrics so the tab would make more sense.



                        "SOMETHIN' ELSE" by Eddie Cochran


|---------|---------------------------|-------|------------------||---------|---------------------------|-------|------------------||---------|---------------------------|-------|------------------||---------|---------------------------|-------|------------------||---7-7-7-|-6-7-7-7--6-7-7-7--6-7-7-7-|-7-7-7-|-6-7-7-7--6-7-7-7-||---5-5-5-|-4-5-5-5--4-5-5-5--4-5-5-5-|-5-5-5-|-4-5-5-5--4-5-5-5-|
---------hey looky there!------here she comes!
|----------|---------------|-------------------|---------||----------|---------------|-------------------|---------||----------|----------9--9-|-------------------|---------||--7-7-7-7-|----------9--9-|--------------7--7-|---------||--5-5-5-5-|----------7--7-|--------------5--5-|-------0-||----------|---------------|-------------------|-0-2-4---|
--here comes that girl again--------wanted todateher since i dont know when
|----------------------|-------|------------------------|-------||----------------------|-------|------------------------|-------||----------------------|-------|------------------------|-------||--2--4--2--4--2--4--2-|-------|-2--4--2--4--2--4--2----|-------||--0--0--0--0--0--0--0-|-------|-0--0--0--0--0--0--0----|-0-2-4-||----------------------|-0-2-4-|------------------------|-------|
-but she dont notice me when i pass
|-----------------------||-----------------------||-----------------------||--7--9--7--9--7--9--7--||--5--5--5--5--5--5--5--||-----------------------|
she goes with other guys from outta my class
|-----------------------||-----------------------||-----------------------||--2--4--2--4--2--4--2--||--0--0--0--0--0--0--0--||-----------------------|
but that cant stop me from thinking to myself
|-----------------------------------||-----------------------------------||-----------------------------------||--9--9--9--9-----------7--7--7--7--||--7--7--7--7-----------5--5--5--5--||-----------------------------------|
that girls fine lookin man---shes somethin else!
|-------------------------||-------------------------||--2-----------------2----||--2-----------------2----||--0-----------------0----||-------------------------|
|---------|---------------------------|-------|------------------||---------|---------------------------|-------|------------------||---------|---------------------------|-------|------------------||---------|---------------------------|-------|------------------||---7-7-7-|-6-7-7-7--6-7-7-7--6-7-7-7-|-7-7-7-|-6-7-7-7--6-7-7-7-||---5-5-5-|-4-5-5-5--4-5-5-5--4-5-5-5-|-5-5-5-|-4-5-5-5--4-5-5-5-|
and thats it! just repeat this with the other verses and you can rock out all night. long live the music of Eddie Cochran! -Bertman (THE TOAST!)
Please rate this tab:
x1.0