Eltjo Haselhoff - Cornerstone tab

Cornerstone
(Eltjo Haselhoff)

MP3 on: www.eltjohaselhoff.com

May be copied freely, but in unmodified form only. 



                                                                    
D||----------------|----------------|------------------|-----------|C||----------------|----------------|------------------|-----------|G||----------------|-----------0-2--|--3--2-3-2-0------|-----------|D||----------------|-----0-1-2------|------------------|-----------|G||-----------0-2--|--5-------------|-------------0-7b-|--5--------|C||--0--2-3-4------|----------------|------------------|-----------|
--------------|----------------|--0-------------|-----------------|--------------|-----------0----|-----------0----|-----------0-----|---0----------|-----0h2p----0--|-------0h2---2/-|--5----5-------5-|--------------|-----2-------2--|-----2-------0--|-----0-------0---|-----0--2--5--|---------0------|---------0------|-----------------|--------------|--0-------------|--0-------------|--5------0-------|
------------0----|----------------|----0-------0----|--0-2-0--------|----0------------|----------0-----|--------0--------|---------2--0--|--------5--------|-----4--------4-|-----------------|---------2--0--|------0-------0--|-----3------3---|------3-------3--|------2-----0--|-----------------|--0-------------|--0--------------|---------0-----|--5-------0h--5--|--------2-------|----------2------|--0------------|
-----0h2p0------|----------------|--2--0--------|-----0----------|-----------0----|-----------0----|--------2--0--|----------0-----|-------------2--|-----0h2p----0--|--2--0--2--0--|-----5--------5-|--2--2-------2--|-----2-------2--|-----0-----0--|-----0------0---|---------0------|---------0------|--------0-----|----------------|--0-------------|--0-------------|--0-----------|--5-----0-------|
------------0----|----------------|----0------------|-----------------|----0------------|----------0-----|------------0----|--0--------0-----|--------5--------|-----4--------4-|--------4--------|-------0-------0-|------0-------0--|-----3------3---|------3-------3--|-----2-------2---|-----------------|--0-------------|--0--------------|---------0-------|--5-------0h--5--|--------2-------|----------2------|--0--------------|
----------2--0--|---------------|-----------0----|--0h2-0--------|----0-----0-----|--0-------0----|--0-------------|---------2--0--|--------0-0-----|-----2------2--|-------5--------|--0------2--0--|------2---------|-----2------2--|-----0-------0--|------2-----2--|----------0--4--|--2------------|----------------|---------0-----|--0-------------|--------4------|--5------5------|--0------------|
-----0-2p0------|----------0----|----------------|--7-----7----|--7-7--7-7-----|-----------0----|-----0---------|--0--------0----|--7-----7----|--7-7--7-7--x--|-----0---2---0--|-----2---------|-------4--------|--7-----7----|--7-7--7-7--x--|-----0-------0--|-----2------2--|-----2-------2--|-----7--7----|--7-7--7-7--x--|---------0------|--2------------|----------------|-------------|---------------|--0-------------|--------4------|--4------4------|--5----------|---------------|
-----2h-----3--|--0h2p0--0-----|-----0----------|------------0----|----------0----|------------0--|----------0-----|----0------------|-----0---------|--0------4-----|-----5--------5-|--------5--------|-----2------2--|------2-----2--|-----0------0---|------0-------0--|--------0------|---------------|----------------|-----------------|--0------------|--0------4-----|--5-----0-------|--5-------0------|
----------------|----0-------0----|--0-2-0--------|-----0h2p0------|----------0-----|--------0--------|---------2--0--|-----------0----|-----4--------4-|-----------------|---------2--0--|-------------2--|-----3------3---|------3-------3--|------2-----0h-|--2--2-------2--|--0-------------|--0--------------|---------0-----|---------0------|--------2-------|----------2------|--0------------|--0-------------|
----------------|--2--0--------|-----0----------|--0-5p0-----0----|-----------0----|--------2--0--|----------0-----|--4--------------|-----0h2p----0--|--2--0--2--0--|-----5--------5-|--------5--------|-----2-------2--|-----0-----0--|-----0------0---|------0-------0--|---------0------|--------0-----|----------------|-----------------|--0-------------|--0-----2--4--|--5-----0-------|--5-------0h--5--|
----------------|----5------------|----------------|----------------|----------0-----|------------0----|--0-------------|----------------|-----4--------4-|--------4--------|----------------|-----------0-2--|-----3------3---|------3-------3--|----------------|-----0-1-2------|--0-------------|--0--------------|-----------0-2--|--5-------------|--------2-------|----------2------|--0--2-3-4------|----------------|
------------------|-----------|--------------|----------------|--0-------------|------------------|-----------|--------------|-----------0----|-----------0----|--3--2-3-2-0------|-----------|---0----------|-----0h2p----0--|-------0h2---2--|------------------|-----------|--------------|-----2-------2--|-----2-------2--|-------------0-7b-|--5--------|-----0--2--5--|---------0------|---------0------|------------------|-----------|--------------|--0-------------|--0-------------|
----------------|--0h2p0--------|----------------|--0-------------|-----------0----|------0--2--0--|-----------0----|-----------0----|-----0h2p----0--|------0--2--0--|-----0h2p----0--|-------0h2---2--|-----2-------2--|------2-----0--|-----2-------2--|-----2-------2--|---------0------|---------0-----|---------0------|---------0------|--0-------------|--0------------|--0-------------|--0-------------|
----------------|--0h2p0--------|----------------|--2-------2----|-----------0----|------0--2--0--|-----------2----|-----2---------|-----0h2p----0--|------0--2--0--|-------2--------|---------------|-----2-------2--|------2-----0--|-----3-------3--|-----3------3--|---------0------|---------0-----|---------2------|--------2------|--0-------------|--0------------|--2-------------|--2------------|
--3p-2--------|-----0---------|----------------|--0h2p0--------|--------2-----|----------0----|-----------0----|------0--2--0--|--2--------2--|-----0---------|-----0h2p----0--|------0--2--0--|-----3-----3--|-----3------3--|-----2-------2--|------2-----0--|--------2-----|--------0------|---------0------|---------0-----|--2-----------|--2------------|--0-------------|--0------------|
----------------|--0h2p0--------|----------------|--0-5p0-----0----|-----------0----|------0--2--0--|-----------0----|--4--------------|-----0h2p----0--|------0--2--0--|-------5--------|--5-----5--------|-----2-------2--|------2--------|-----0-------0--|------0-------0--|---------0------|---------------|----------------|-----------------|--0-------------|--0------2--4--|--5------0------|--5-------0h--5--|
----------------|--0--------------|---------------|--0-5p0-----0----|----------0-----|----0-------0----|-----0----0----|--4--------------|-----4--------4-|--------4--------|-----5---------|--5-----5--------|-----3------3---|------3-------3--|-----0------0--|------0-------0--|--0-------------|--0--------------|---------------|-----------------|--------2-------|----------2------|--5-----0------|--5-------0h--5--|
---------------|-----------------|----------------|--0-------------|----------0----|--9p7-------0----|--0--------0----|-----------0----|-----4---------|--------8b----7--|-----0h2p----0--|-------0h2---2/-|-----3------3--|------0-------0--|-----2-------2--|-----2-------0--|--0------------|--0-------0------|---------0------|---------0------|--------2------|-----------------|--0-------------|--0-------------|
-----------------|------------0----|----------------|----0-------0----|-----------0-----|----0------------|----------0-----|--------0--------|--5----5-------5-|--------5--------|-----4--------4-|-----------------|-----0-------0---|------0-------0--|-----3------3---|------3-------3--|-----------------|-----------------|--0-------------|--0--------------|--5------0-------|--5-------0h--5--|--------2-------|----------2------|
--0-2-0--------|-----0h2p0------|----------------|--2--0--------|---------2--0--|-----------0----|-----------0----|--------2--0--|---------2--0--|-------------2--|-----0h2p----0--|--2--0--2--0--|------2-----0--|--2--2-------2--|-----2-------2--|-----0-----0--|---------0-----|---------0------|---------0------|--------0-----|--0------------|--0-------------|--0-------------|--0-----------|
-----0----------|------------0----|----------------|----0------------|----------0-----|----0------------|----------0-----|------------0----|-----5--------5-|--------5--------|-----4--------4-|--------4--------|-----0------0---|------0-------0--|-----3------3---|------3-------3--|----------------|-----------------|--0-------------|--0--------------|--5-----0-------|--5-------0h--5--|--------2-------|----------2------|
-----------------|----------2--0--|---------------|-----------0----|--0--------0-----|----0-----0-----|--0-------0----|--0-------------|-------0-------0-|--------0-0-----|-----2------2--|-------5--------|-----2-------2---|------2---------|-----2------2--|-----0-------0--|---------0-------|----------0--4--|--2------------|----------------|--0--------------|--0-------------|--------4------|--5------5------|
--0h2-0--------|-----0-2p0------|----------0----|----------------|--7-----7----|---------2--0--|-----------0----|-----0---------|--0--------0----|--7-----7----|--0------2--0--|-----0---2---0--|-----2---------|-------4--------|--7-----7----|------2-----2--|-----0-------0--|-----2------2--|-----2-------2--|-----7--7----|---------0-----|---------0------|--2------------|----------------|-------------|--0------------|--0-------------|--------4------|--4------4------|--5----------|
--7-7--7-7-----|-----2h-----3--|--0h2p0--0-----|-----0----------|--7-7--7-7-----|----------0----|------------0--|----------0-----|--7-7--7-7--x--|-----0---------|--0------4-----|-----5--------5-|--7-7--7-7--x--|-----2------2--|------2-----2--|-----0------0---|------------x--|--------0------|---------------|----------------|---------------|--0------------|--0------4-----|--5-----0-------|
------------0----|----------------|----0-------0----|--0-2-0--------|----0------------|----------0-----|--------0--------|---------2--0--|--------5--------|-----4--------4-|-----------------|---------2--0--|------0-------0--|-----3------3---|------3-------3--|------2-----0h-|-----------------|--0-------------|--0--------------|---------0-----|--5-------0------|--------2-------|----------2------|--0------------|
-----0h2p0------|----------------|--2--0--------|-----0----------|-----------0----|-----------0----|--------2--0--|----------0-----|-------------2--|-----0h2p----0--|--2--0--2--0--|-----5--------5-|--2--2-------2--|-----2-------2--|-----0-----0--|-----0------0---|---------0------|---------0------|--------0-----|----------------|--0-------------|--0-------------|--0-----2--4--|--5-----0-------|
--0-5p0-----0----|----------------|----5------------|-----------------|--4--------------|----------0-----|------------0----|--0--------0-----|--------5--------|-----4--------4-|--------4--------|-------0-------0-|------0-------0--|-----3------3---|------3-------3--|-----2-------2---|-----------------|--0-------------|--0--------------|---------0-------|--5-------0h--5--|--------2-------|----------2------|--0--------------|
----------2--0--|----------------|--5h7------------|--5------3p2---0-|----0-----0-----|--0--------0----|------------5----|-----------------|--------0-0-----|-------4--------|--------5--------|-------x---------|------2---------|-----2-------2--|------7-------7--|-----5-------3---|----------0--4--|--2-------------|----------5------|-----------------|--0-------------|---------4------|--5--------------|--0------0-------|
----------0--|--------0----------|----------------|--5-------------|-----0-------|------0---------0--|--0--------0----|-----------4----|-----0-------|----------7h9p7-0--|-------4--------|-------4--------|-----0-------|--5h7--------------|-----2-------2--|-----5-------5--|--0----------|-------------------|--2-------------|---------4------|-------------|-------------------|---------4------|--4-------------|
--3p---2---------|----------2----|----------------|--7-------------|-----------2-----|-----2---------|--0--------0----|-----------5----|-------2-------2-|-----2---------|-------4--------|-------5--------|-----3-------3---|-----3------3--|-----2-------2--|-----7-------7--|---------2-------|--------2------|--2-------------|---------5------|--2--------------|--2------------|---------4------|--5-------------|
--10------7p5---0-|----------0--|--------0----------|----------------|------------------|-----0-------|------0------------|--0--------0----|--0-----x-------0-|-----0-------|----------7h9p7-0--|-------4--------|------x-------7---|-----0-------|--5h7--------------|-----2-------2--|------------------|--0----------|-------------------|--2-------------|--0-------0-------|-------------|-------------------|---------4------|
--5-------------|----------------|--3p---2---------|---------------|-----------4----|-----------4----|-----------2-----|-----0---------|-------4--------|-------4--------|-------2-------0-|-----0----0----|-----5-------5--|-----5-------5--|-----3-------3---|-----3------3--|---------4------|---------4------|---------2-------|--0-----0------|--4-------------|--4-------------|--2--------------|---------------|
-------------|----------------|--0-------------|-----------------|--0----------|-----------0----|-----------0----|-----------0-----|--0----2--0--|-----0h2p----0--|-------0h2---2/-|--5----5-------5-|--3----------|-----2-------2--|-----2-------0--|-----0-------0---|-------------|---------0------|---------0------|-----------------|-------------|--0-------------|--0-------------|--5------0-------|
------------0----|----------------|----0-------0----|--0-2-0--------|----0------------|----------0-----|--------0--------|---------2--0--|--------5--------|-----4--------4-|-----------------|---------2--0--|------0-------0--|-----3------3---|------3-------3--|------2-----0--|-----------------|--0-------------|--0--------------|---------0-----|--5-------0h--5--|--------2-------|----------2------|--0------------|
-----0h2p0------|----------------|--2--0--------|-----0----------|-----------0----|-----------0----|--------2--0--|----------0-----|-------------2--|-----0h2p----0--|--2--0--2--0--|-----5--------5-|--2--2-------2--|-----2-------2--|-----0-----0--|-----0------0---|---------0------|---------0------|--------0-----|----------------|--0-------------|--0-------------|--0-----------|--5-----0-------|
------------0----|----------------|----5------------|-----------------|----0------------|----------0-----|------------0----|--0--------0-----|--------5--------|-----4--------4-|--------4--------|-------0-------0-|------0-------0--|-----3------3---|------3-------3--|-----2-------2---|-----------------|--0-------------|--0--------------|---------0-------|--5-------0h--5--|--------2-------|----------2------|--0--------------|
----------2--0--|---------------|-----------0----|--0h2-0--------|----0-----0-----|--0-------0----|--0-------------|---------2--0--|--------0-0-----|-----2------2--|-------5--------|--0------2--0--|------2---------|-----2------2--|-----0-------0--|------2-----2--|----------0--4--|--2------------|----------------|---------0-----|--0-------------|--------4------|--5------5------|--0------------|
-----0-2p0------|----------0----|----------------|--7-----7----|--7-7--7-7-----|-----------0----|-----0---------|--0--------0----|--7-----7----|--7-7--7-7-----|-----0---2---0--|-----2---------|-------4--------|--7-----7----|--7-7--7-7--x--|-----0-------0--|-----2------2--|-----2-------2--|-----7--7----|--7-7--7-7--x--|---------0------|--2------------|----------------|-------------|------------x--|--0-------------|--------4------|--4------4------|--5----------|---------------|
-----2h-----3--|--0h2p0--0-----|-----0----------|------------0----|----------0----|------------0--|----------0-----|----0------------|-----0---------|--0------4-----|-----5--------5-|--------5--------|-----2------2--|------2-----2--|-----0------0---|------0-------0--|--------0------|---------------|----------------|-----------------|--0------------|--0------4-----|--5-----0-------|--5-------0------|
----------------|----0-------0----|--0-2-0--------|-----0h2p0------|----------0-----|--------0--------|---------2--0--|-----------0----|-----4--------4-|-----------------|---------2--0--|-------------2--|-----3------3---|------3-------3--|------2-----0h-|--2--2-------2--|--0-------------|--0--------------|---------0-----|---------0------|--------2-------|----------2------|--0------------|--0-------------|
----------------|--2--0--------|-----0----------|--0-5p0-----0----|-----------0----|--------2--0--|----------0-----|--4--------------|-----0h2p----0--|--2--0--2--0--|-----5--------5-|--------5--------|-----2-------2--|-----0-----0--|-----0------0---|------0-------0--|---------0------|--------0-----|----------------|-----------------|--0-------------|--0-----2--4--|--5-----0-------|--5-------0h--5--|
----------------|----5------------|----------------|--0h2p0--------|----------0-----|------------0----|--0--------0----|------0--2--0--|-----4--------4-|--------4--------|-----0h2p----0--|------0--2--0--|-----3------3---|------3-------3--|-----2-------2--|------2-----0--|--0-------------|--0--------------|---------0------|---------0-----|--------2-------|----------2------|--0-------------|--0------------|
----------------|----5------------|----------------|--0h2p0--------|----------0-----|------------0----|--0--------0----|------0--2--0--|-----4--------4-|--------4--------|-----0h2p----0--|------0--2--0--|-----3------3---|------3-------3--|-----2-------2--|------2-----0--|--0-------------|--0--------------|---------0------|---------0-----|--------2-------|----------2------|--0-------------|--0------------|
---------------|-----------------|----------------|---------------|----------0----|--9p7-------0----|--0-------------|-----------0---|-----4---------|--------8b----7--|----------------|---------------|-----3------3--|------0-------0--|----------------|-----0-1-2-----|--0------------|--0-------0------|-----------0-2--|--5------------|--------2------|-----------------|--0--2-3-4------|---------------|
--10--7-----------|-------------|----------||-------------0----|--0----12----|----------||---------8-7------|--0----12----|----------||---------------7--|-------------|----------||------------------|-------------|----------||------------------|-------0-----|----------||
Tap to rate this tab
 
# A B C D E F G H I J K L M N O P Q R S T U V W X Y Z