Elvis Presley - Cant Help Falling In Love With You Acoustic tab

Elvis Presley - Can't Help Falling In Love With You  (Acoustic Version)

Tabbed By - Jagdeep Singh (jagdeep_1989@hotmail.com

This Is A Acoustic Version Of Elvis Presley's Can't Help Falling In Love.
This Song Rocks.I Also Tabbed The Tremolo Part.It Took Me A Long Time To
Do That.If You Like This Tab Please Give This Song A Good Rate.


 Plucking Style (Acoustic)
 
     Chorus,
                                                        
E||---3-----------7-----------|--3-----------------5--7/-|B||---------0-----------7-----|--------0-----------------|G||------0-----0-----7-----7--|-----0-----0-----0--------|D||---------------------------|--------------------------|A||---------------------------|--------------------------|E||---3-----------7-----------|--0-----------0-----------|
|--8-----------7-----------|--5---------------------|--0-----------2/----------||--------5-----------0-----|--------3----------3----|--------1-----------1-----||-----5-----5-----0-----0--|-----5-----5------------|-----0-----0-----2-----2--||--------------------------|--0-----------0---------|--------------0-----------||--0-----------------------|------------------------|--3-----------------------||--------------3-----------|------------------------|--------------------------|
|--3-----------5----7----8/---|--7-----------5/----------||--------0-----5--------------|--------0-----------3-----||-----0-----0--5--------------|-----0-----0-----5-----5--||-----------------------------|--------------0-----------||--------------0--------------|--------------------------||--0--------------------------|--3-----------------------|
Bridge,
|--3-----------3---------|| ||-----------2--0-----------|-----------2--0-----------||--------0-----0---------|| ||--------3-----------------|--------3-----------------||-----0-----0--0---------|| ||-----4-----------3--3--3--|-----4-----------3--3--3--||------------------------|| ||--4--------------4--4--4--|--4--------------4--4--4--||------------------------|| ||--2-----------------------|--2-----------------------||--3-----------3---------|| ||--------------0-----------|--------------0-----------|
|------------------------|--------------------2-----|||--3----3----------3-----|--1-----------------1-----|||--4------------4-----4--|--------0--------2-----2--|||--4---------------------|-----2-----2--0-----------|||--2---------------------|--0-----------------------|||------------0-----------|--------------------------||
Tremolo Style Chorus,
||----3-3-3---3-3-3---3-3-3---3-3-3---3-3-3---3-3-3/|||------------------0---------------0---------------|||----------0---------------0---------------0-------|||--------------------------------------------------|||--------------------------------------------------|||--3-----------------------------------------------|
|----7-7-7---7-7-7---7-7-7---7-7-7---7-7-7---7-7-7/||------------------7---------------7---------------||----------7---------------7---------------7-------||--------------------------------------------------||--------------------------------------------------||--7-----------------------------------------------|
|----3-3-3---3-3-3---3-3-3---3-3-3---3-3-3---3-3-3-|-------5--7--||------------------0---------------0---------------|-------------||----------0---------------0---------------0-------|-------------||--------------------------------------------------|-------------||--------------------------------------------------|-------------||--0-----------------------------------------------|--0----------|
|----8-8-8---8-8-8---8-8-8---8-8-8---8-8-8---8-8-8/||------------------5---------------5---------------||----------5---------------5---------------5-------||--------------------------------------------------||--0-----------------------------------------------||--------------------------------------------------|
|----7-7-7---7-7-7---7-7-7---7-7-7---7-7-7---7-7-7/||------------------0---------------0---------------||----------0---------------0---------------0-------||--------------------------------------------------||--------------------------------------------------||--3-----------------------------------------------|
|----5-5-5---5-5-5---5-5-5---5-5-5---5-5-5---5-5-5-|------------||------------------3---------------3---------------|-------3----||----------5---------------5---------------5-------|------------||--0-----------------------------------------------|--0---------||--------------------------------------------------|------------||--------------------------------------------------|------------|
|----0-0-0---0-0-0---0-0-0---0-0-0---0-0-0---0-0-0-||------------------1---------------1---------------||----------0---------------0---------------0-------||--------------------------------------------------||--3-----------------------------------------------||--------------------------------------------------|
|----2-2-2---2-2-2---2-2-2---2-2-2---2-2-2---2-2-2/||------------------1---------------1---------------||----------2---------------2---------------2-------||--0-----------------------------------------------||--------------------------------------------------||--------------------------------------------------|
|----3-3-3---3-3-3---3-3-3---3-3-3---3-3-3---3-3-3-|--5----7----8/---||------------------0---------------0---------------|--5--------------||----------0---------------0---------------0-------|--5--------------||--------------------------------------------------|-----------------||--------------------------------------------------|--0--------------||--0-----------------------------------------------|-----------------|
|----7-7-7---7-7-7---7-7-7---7-7-7---7-7-7---7-7-7/||------------------0---------------0---------------||----------0---------------0---------------0-------||--------------------------------------------------||--------------------------------------------------||--3-----------------------------------------------|
|----5-5-5---5-5-5---5-5-5---5-5-5---5-5-5---5-5-5/||------------------3---------------3---------------||----------5---------------5---------------5-------||--0-----------------------------------------------||--------------------------------------------------||--------------------------------------------------|
|----3-3-3---3-3-3---3-3-3---3-3-3---3-3-3---3-3-3-|--3------------|||------------------0---------------0---------------|--0------------|||----------0---------------0---------------0-------|--0------------|| End !|--------------------------------------------------|---------------|||--------------------------------------------------|---------------|||--3-----------------------------------------------|--3------------||
Tap to rate this tab
 
# A B C D E F G H I J K L M N O P Q R S T U V W X Y Z