Karn Evil 9 tab with lyrics by Emerson Lake And Palmer - Easy chords and tabs for guitar

Emerson Lake And Palmer – Karn Evil 9 tab

(guitar solo)|---------------------------------------||---------------------------------------||---------------------------------------||------------------------------------9~-||-9-10-11--9-10-11--9-10-11--9-10-11----||---------------------------------------|
|-----------------------------------------||-----------------------------------------||-----------------------------------------||-----------------------------------------||-9-10-11--9-10-11--9-10-11--9-10-11------||------------------------------------11~--|
|-----------------------------------------------||-----------------------------------------------||-----------------------------------------------||---------------------------9~------------------||-9-10-11--9-10-11--9-10-11-----11--9--11--9~---||-----------------------------------------------|
|---------------------------------------------||----------------------------------------12~--||-11-12-13--11-12-13--11-12-13--11-12-13------||---------------------------------------------||---------------------------------------------||---------------------------------------------|
|--------------------------------------------||--------------------------------------------||-11-12-13--11-12-13--11-12-13--11-12-13-----||----------------------------------------11~-||--------------------------------------------||--------------------------------------------|
|---------------------------------------------------||------------------------------12~------------------||-11-12-13--11-12-13--11-12-13------13-11-13-11-13~-||---------------------------------------------------||---------------------------------------------------||---------------------------------------------------|
|--------------------------------------------------------||-------------------16-15-13---------16-15-16-15-16^(18)-||-13-14-15-------15----------15-13~----------------------||-------------13-----------------------------------------||----------13--------------------------------------------||--------------------------------------------------------|
|-16-15-16^(18)--16^(18)--15---------|-----------------------------||----------------------------18-16~--|-15-16-18-16-15-16-15--------||------------------------------------|----------------------13-15~-||------------------------------------|-----------------------------||------------------------------------|-----------------------------||------------------------------------|-----------------------------|
|------------------13-14--13------------------------||-----16-14-16--16-----------16-----------14-16-14--||.-15---------------------------15--13-15----------.||.-------------------------------------------------.||---------------------------------------------------||---------------------------------------------------|
|------------------------------------11-12--11-12-------------||-14-17-14----------14-14-12-14~--14-------------12-14-12-----||----------16-13-13---------------------------------------13~-||-------------------------------------------------------------||-------------------------------------------------------------||-------------------------------------------------------------|
|-----------------------------||-----------------------------||-13-11-----------------------||-------14--11h13p11----------||---------------------14p11---||-----------------------------|
|------------------------------------------------------------------------||-12-11---------------------------11--12h14h16--12-----------------------||--------11h13p11-----11-13~---13------------------13-11-----------------||------------------13------------------------------------13-13-11-13~----||------------------------------------------------------------------------||------------------------------------------------------------------------|
|--------------------|-------------------------------------||-13-13-13--16-16----|--16-14-13----13---------------------||-----------------13-|.----------15----15-13--------------.||--------------------|.----------------------13-13-15-13--.||--------------------|-------------------------------------||--------------------|-------------------------------------|
|-----------------------------||-------------------14-16-17--||----------13-14-16-----------||-13-14-16--------------------||-----------------------------||-----------------------------|
|-----------------------------|-----------------------------||-----------------------------|-----------------------------||-18-16-14--------------------|-15-13-11--------------------||----------18-16-14-----------|----------15-13-11-----------||-------------------18-16-14~-|-------------------15-13-11~-||-----------------------------|-----------------------------|
|-----------------------------------------------------||-17-15-14--------------------------------------------||----------18-16-14-----------------------------------||-------------------18-16-14~-----16^(18)-(16)-(18)~--||-----------------------------------------------------||-----------------------------------------------------|
|-----------------------------||-----------------------------||-20-18-16--------------------||----------20-18-16-----------||-------------------20-18-16~-||-----------------------------|
|----------------------------------||-------------14-13-14-16-17-19-17-||-------13-13----------------------||-15-15----------------------------||----------------------------------||----------------------------------|
|-------------------------------------|------------------------------||-19^(21)--19^(21)--19^(21)--19^(21)~-|-19----------17-19-19^(21)----||-------------------------------------|----18-16-18------------------||-------------------------------------|------------------------------||-------------------------------------|------------------------------||-------------------------------------|------------------------------|
(FAST)|------------------------------------------------------------||--14-13-11-13--14-13-11-13--14-13-11-13--14-13-11-13--11----||.----------------------------------------------------------.||.----------------------------------------------------------.||------------------------------------------------------------||------------------------------------------------------------|
(x4)|------------------------------------------------------------|-16\-----||--17-16-14-16--17-16-14-16--17-16-14-16--17-16-14-16--14----|-16\-----||.----------------------------------------------------------.|---------||.----------------------------------------------------------.|---------||------------------------------------------------------------|---------||------------------------------------------------------------|---------|
Welcome back my friends to the show that never ends We're so glad you could attend Come inside! Come inside! There behind a glass is a real blade of grass be careful as you pass. Move along! Move along! Come inside, the show's about to start guaranteed to blow your head apart
Rest assured you'll get your money's worth.|---------------------------------------------||---------------------------------------------||---------------------------------------------||-8------------------(8)----------------------||-8------------------(8)----------------------||-8------------------(8)----------------------|
The greatest show in Heaven, Hell or Earth.|---------------------------------------------||---------------------------------------------||---------------------------------------------||-8------------------(8)----------------------||-8------------------(8)----------------------||-8------------------(8)----------------------|
You've got to see the show, it's a dynamo|------------------------------------------------------------||------------------------------------------------------------||------------------------------------------------------------||-----------------------13-------(13)------------9-------(9)-||-----------------------13-------(13)------------9-------(9)-||-----------------------13-------(13)------------9-------(9)-|
You've got to see the show, it's rock and roll...|---------------------------------------------------------------||---------------------------------------------------------------||---------------------------------------------------------------||-----------------------13-------(13)---------------9-------(9)-||-----------------------13-------(13)---------------9-------(9)-||-----------------------13-------(13)---------------9-------(9)-|
Right before your eyes, we pull laughter from the skies|---------------------------------------------------------||---------------------------------------------------------||---------------------------------------------------------||-6-------------------------------(6)---------------------||-6-------------------------------(6)---------------------||-6-------------------------------(6)---------------------|
And he laughs until he cries, then he dies, then he dies|----------------------------------------------------------||----------------------------------------------------------||-6^(8)~--------------------------------(8)----------------||----------------------------------------------------------||----------------------------------------------------------||----------------------------------------------------------|
Come inside the show's about to start, guaranteed to blow your head apart|-------------------------------------------------------------------------||-------------------------------------------------------------------------||-------------------------------------------------------------------------||-8------------------(8)------------------8---------------(8)-------------||-8------------------(8)------------------8---------------(8)-------------||-8------------------(8)------------------8---------------(8)-------------|
You've got to see the show, it's a dynamo|-------------------------------------|-------------------------||-------------------------------------|-------------------------||-------------------------------------|-------------------------||----------------------------8--4--1--|---------------9--4--9---||----------------------------8--4--1--|---------------9--4--9---||----------------------------8--4--1--|---------------9--4--9---|
You've got to see the show, it's rock and roll...|-------------------------------------|-----------------------------||-------------------------------------|-----------------------------||-------------------------------------|-----------------------------||---------------------------13--8--13-|---------------------9--4--9-||---------------------------13--8--13-|---------------------9--4--9-||---------------------------13--8--13-|---------------------9--4--9-|
(RIFF C) (1) (4) (2) (3)|----------------------------|-------------|-----------|---------------||------4------6----8------4--|-9-7---------|-----------|---------------||.-----4------6----8------4--|-----8-6-4--.|----------.|--------------.||.-6-6----6-6----6----6-6----|------------.|----------.|-6-6-6--6-4-5-.||----------------------------|-------------|-----------|---------------||----------------------------|-------------|-6-4--6-4--|---------------|
(AFTER 4, PLAY SOMETHING SIMILAR A FEW TIMES)|------------------------||------4-----------------||.-----4----------------.||.-6-6----6-6-6--6-4-5--.||------------------------||------------------------|
(GUITAR SOLO)|------------------------------------11-12--11-12-------------||-14-17-14----------14-14-12-14~--14-------------12-14-12-----||----------16-13-13---------------------------------------13~-||-------------------------------------------------------------||-------------------------------------------------------------||-------------------------------------------------------------|
|-----------------------------||-----------------------------||-13-11-----------------------||-------14--11h13p11----------||---------------------14p11---||-----------------------------|
|------------------------------------------------------------------------||-12-11---------------------------11--12h14h16--12-----------------------||--------11h13p11-----11-13~---13------------------13-11-----------------||------------------13------------------------------------13-13-11-13~----||------------------------------------------------------------------------||------------------------------------------------------------------------|
|--------------------|-------------------------------------||-13-13-13--16-16----|--16-14-13----13---------------------||-----------------13-|.----------15----15-13--------------.||--------------------|.----------------------13-13-15-13--.||--------------------|-------------------------------------||--------------------|-------------------------------------|
|-----------------------------||-------------------14-16-17--||----------13-14-16-----------||-13-14-16--------------------||-----------------------------||-----------------------------|
|-----------------------------|-----------------------------||-----------------------------|-----------------------------||-18-16-14--------------------|-15-13-11--------------------||----------18-16-14-----------|----------15-13-11-----------||-------------------18-16-14~-|-------------------15-13-11~-||-----------------------------|-----------------------------|
|----------------------------------------------------||-17-15-14-------------------------------------------||----------18-16-14----------------------------------||-------------------18-16-14~----16^(18)-(16)-(18)~--||----------------------------------------------------||----------------------------------------------------|
|-----------------------------||-----------------------------||-20-18-16--------------------||----------20-18-16-----------||-------------------20 18 16~-||-----------------------------|
|----------------------------------||-------------14-13-14-16-17-19-17-||-------13-13----------------------||-15-15----------------------------||----------------------------------||----------------------------------|
|-------------------------------------||-19^(21)--19^(21)--19^(21)--19^(21)~-||-------------------------------------||-------------------------------------||-------------------------------------||-------------------------------------|
|-----------------------------------------||-17-19-17-16-17-16-----------------------||-------------------18-18^(20)--18^(20)\--||-----------------------------------------||-----------------------------------------||-----------------------------------------|
(FAST)|-------------------------------------------------------------||--14-13-11-13--14-13-11-13--14-13-11-13--14-13-11-13---11----||.-----------------------------------------------------------.||.-----------------------------------------------------------.||-------------------------------------------------------------||-------------------------------------------------------------|
(x4)|-------------------------------------------------------------|-16\-----||--17-16-14-16--17-16-14-16--17-16-14-16--17-16-14-16---14----|-16\-----||.-----------------------------------------------------------.|---------||.-----------------------------------------------------------.|---------||-------------------------------------------------------------|---------||-------------------------------------------------------------|---------|
(DRUM SOLO) Soon the Gypsy Queen in a glaze of Vaseline Will perform on guillotine What a scene! What a scene! Next upon the stand will you please extend a hand to Alexander's Ragtime Band Roll up! Roll up! Roll up! See the show! Performing on a stool we've a sight to make you drool Seven virgins and a mule Keep it cool. Keep it cool. We would like it to be known the exhibits that were shown were exclusively our own, All our own. All our own. Come and see the show! Come and see the show! Come and see the show! See the show!
Please rate this tab:
x1.0