Enrique Granados - Danzas Espaolas Op 37 No 2 - Oriental tab

Danza Espanola Op 37 No 2 (Oriental) - Enrique Granados (1867-1916)

From: "Micah Muldowney" 
Subject: Oriental
Date: Fri, 12 Apr 2002 15:15:57 -0400

Spanish Dance #2 "Oriental" - Enrique Granados

Duet

Arr. and TAB by Micah Muldowney

Tunning - EADGBE

|--------------------|--------------------|--------------------||--------------------|--------------------|--8-----4-----8-----||--------------------|--------------------|o-8-----5-----8-----||--------------------|--------------------|o-------------------||--------------------|--------------------|--------------------||--------------------|--------------------|--------------------|
| | | | | | | | | | | | | ||--------------------|--------------------|--------------------||--------------------|--------------------|--------------------||-----------0--------|-----------0--------|o----------0--------||-----0--1-----1--0--|-----0--1-----1--0--|o----0--1-----1--0--||--3-----------------|--3-----------------|--3-----------------||--------------------|--------------------|--------------------|
|--------------------|--------------------|--------6tr=======46||--------6-----4-----|--6-----6--4--3-----|--------------------||--------6-----5-----|--7-----7--5--3-----|--------7-----------||--------------------|--------------------|--------------------||--------------------|--------------------|--------------------||--------------------|--------------------|--------------------|
| | | | | | | | | | | | | | ||--------------------|--------------------|--------------------||--------------------|--------------------|--------------------||-----------------0--|-----------3--------|-----------3--------||-----0-----0--1-----|-----0--3-----3--0--|-----0--3-----3-----||--3-----3-----------|--3-----------------|--3--------------1--||--------------------|--------------------|--------------------|
|--------------------|--------------------|--------------------||--1-----4-----3-----|--1-----3-----------|--------------------||--1-----5-----3-----|--1-----3-----3-----|--0=================||--------------------|--------------0-----|--1=================||--------------------|--------------------|--------------------||--------------------|--------------------|--------------------|
| | | | | | | | | | | | | | ||--------------------|--------------------|--------------------||--------------------|--------------------|--------------------||-----------------0--|--1--3--1--3--------|-----------0--------||-----------1--3-----|--------------------|-----0--1-----1--0--||-----1--3-----------|--------------------|--3-----------------||--4-----------------|--------------4--6--|--------------------|
|--------------------|--------------------|--------------------||--------------------|--------------------|--------3-----------||=(0)===============o|o-------------1-----|--4-----------------||=(1)===============o|o-3--5--3--5--3-----|--5-----3-----------||--------------------|--5--6--5--6--------|--------------------||--------------------|--------------------|--------------------|
| | | | | | | | | | | | | | ||--------------------|--------------------|--------------------||--------------------|--------------------|--------------------||-----------0-------o|o-------------------|--------------------||-----0--1-----1--0-o|o----------------1--|-----------------1--||--3-----------------|--------------------|--5--3--2-----------||--------------------|--6--4--6--4--1-----|-----------4--1-----|
|--------------------|--------------------|--------------------||--------------------|--------------------|--8-----4-----8-----||--------------------|-------------------o|--8-----5-----8-----||--0=================|=(0)===============o|--------------------||--1=================|=(1)================|--------------------||--------------------|--------------------|--------------------|
| | | | | | | | | | | | | | ||--------------------|--------------------|--------------------||-----------------1--|--3--4--6--4--3--4--|--------------------||--------------0-----|-------------------o|-----------0--------||-----------1--------|-------------------o|-----0--1-----1--0--||--5--3--5-----------|--------------------|--3-----------------||--------------------|--------------------|--------------------|
|--------------------|--------------------|--------6tr=======46||--------6-----4-----|--6-----6--4--3-----|--------------------||--------7-----5-----|--7-----7--5--3-----|--------7-----------||--------------------|--------------------|--------------------||--------------------|--------------------|--------------------||--------------------|--------------------|--------------------|
| | | | | | | | | | | | | | ||--------------------|--------------------|--------------------||--------------------|--------------------|--------------------||-----------------0--|-----------3--------|-----------3--------||-----0-----0--1-----|-----0--3-----3--0--|-----0--3-----3-----||--3-----3-----------|--3-----------------|--3--------------1--||--------------------|--------------------|--------------------|
|--------------------|--------------------|--------------------||--1-----4-----3-----|--1-----3-----------|--------------------||--1-----5-----3-----|--1-----3-----3-----|--0=================||--------------------|--------------0-----|--1=================||--------------------|--------------------|--------------------||--------------------|--------------------|--------------------|
| | | | | | | | | | | | | | ||--------------------|--------------------|--------------------||--------------------|--------------------|--------------------||-----------------0--|--1--3--1--3--------|-----------0--------||-----------1--3-----|--------------------|-----0--1-----1--0--||-----1--3-----------|--------------------|--3-----------------||--4-----------------|--------------4--6--|--------------------|
|--------------------|--------------------|--------------------||--------------------|--3-----3--4--3--4--|--1-----1-----------||=(0)================|--------------------|-----------1--0-----||=(1)================|--------------------|--------------------||--------------------|--------------------|--------------------||--------------------|--------------------|--------------------|
| | | | | | | | | | | | | | ||--------------------|--------------------|--------------------||--------------------|--------------------|--------------------||-----------0--------|--------------------|--------------------||-----0--1-----1-----|--3=================|--1=================||--3--------------1--|--2=================|--3=================||--------------------|--3=================|--3=================|
|--------------------|--------------------|--------------------||--3-----3--4--3--4--|--1=================|--3-----3--4--3--4--||--------------------|--------------------|--------------------||--------------------|--------------------|--------------------||--------------------|--------------------|--------------------||--------------------|--------------------|--------------------|
| | | | | | | | | | | | | | ||--------------------|--------------------|--------------------||--------------------|--------------------|--------------------||--------------------|--0=================|--------------------||--3=================|--1=================|--3=================||--2=================|--3=================|--2=================||--3=================|--------------------|--------------------|
|--------------------|--------------------|--------------------||--1-----1--3--1--3--|--0---1p0-----------|--3-----3--4--3--4--||--------------------|-----------2--0-----|--------------------||--------------------|--------------------|--------------------||--------------------|--------------------|--------------------||--------------------|--------------------|--------------------|
| | | | | | | | | | | | | | ||--------------------|--------------------|--------------------||--------------------|--------------------|--------------------||--1=================|--------------------|--------------------||--3=================|--0=================|--3=================||--------------------|--------------------|--2=================||--------------------|--3=================|--3=================|
|--------------------|--------------------|--------------------||--1-----------------|--------------------|--------------------||--------------------|--0-----------0-----|--------------------||--------------------|--1-----1-----1-----|--------3-----1-----||--------------------|--------3-----------|--------5-----3-----||--------------------|--------------------|--------------------|
| | | | | | | | | | | | | | ||--------------------|-----------3--------|--------1--------3--||--------------------|--1--3--4-----4--3--|--1--3-----3--4-----||--0=================|--------------------|--------------------||--1=================|--------------------|--------------------||--3=================|--------------------|--------------------||--------------------|--------------------|--------------------|
|--------------------|--------------------|--------------------||--3-----3--1--0-----|--------------------|--------------------||--5-----5--3--1-----|--------3tr=======13|--------------------||--------------------|--------------------|--------0-----------||--------------------|--------5-----------|--3-----1-----1-----||--------------------|--------------------|--4-----------------|
| | | | | | | | | | | | | | ||-----------6--------|-----------6--------|--------------1--3--||--------6-----6-----|--------6-----6-----|--------1--4--------||--5--7-----------7--|--5--7-----------3--|--1--3--------------||--------------------|--------------------|--------------------||--------------------|--------------------|--------------------||--------------------|--------------------|--------------------|
|--------------------|--------------------|--------------------||--------------------|--------------------|--------------------||--------------------|--------------------|--------------------||--------------------|--------------------|-------<1>13-<0>12--||--------------------|--------------------|-<3>15--------------||--3=================|=(3)================|--------------------|
| | | | | | | | | | | | | | ||--------------------|--------------------|--------------------||--4--6--4--6--------|--1--3--1--3--1-----|--------------------||--------------------|-----------------3--|--------------------||--------------1--3--|--------------------|--------------------||--------------------|--------------------|--------------------||--------------------|--------------------|-<1>13==============|
|--------------------|--------------------|--3=================||--------------------|--------------------|--4=================||--------------------|--------------------|--0=================||-------<0>12--------|--------------------|--------------------||-<3>15--------<1>13-|--------------------|--3=================||--------------------|--------------------|--------------------|
| | | | | | | | | | | | | | ||--------------------|--------------------|--------------------||--------------------|--------------------|--------------------||--------------------|--------------------|--------------------||--------------------|--1=================|--------------------||--------------------|--3=================|--------------------||-<1>13==============|--3=================|--------------------|
|--------------------------|--11-----11-10111311--10--||--------------------------|--------------------------||--------------------------|--------------------------||--------------------------|--------------------------||--------------------------|--------------------------||--------------------------|--------------------------|
| | | | | | | | | ||--------------------------|--------------------------||------4---4---4---4---4---|------4---4---4---4-------||------5---5---5---5---5---|------5---5---5-----------||----5---5---5---5---5---5-|----5---5---5---5---6-----||--3-----------------------|--3-----------------------||--------------------------|--------------------------|
|--6------46===============|--4---8--68---78108---7---||--------------------------|--------------------------||--------------------------|--------------------------||--------------------------|--------------------------||--------------------------|--------------------------||--------------------------|--------------------------|
| | | | | | | | | ||--------------------------|--------------------------||------3---3---3---3---3---|------1---1---1---1---1---||------3---3---3---3---3---|------1---1---1---1---1---||----5---5---5---3---5-----|----3---3---3---1---3---0-||--3---------------------6-|--3-----------------------||--------------------------|--------------------------|
|--------------------------|15===================----810||--------------------------|---------------------1012---||--12------12==============|12===================-------||--------------------------|----------------------------||--------------------------|----------------------------||--------------------------|----------------------------|
| | | | | || | | ||--------------------------|----1---1---1---1-----1-----||------1---1---1---1---1---|----3---1---0---0-----------||------0---0---0---0---0---|--0---0---0---0----0-----0--||----1---1---1---0---1-----|----------------------------||--3---------------------3-|----------------------------||--------------------------|3---------------------------|
|8=========================|15-----15-----14151715--14--||--------------------------|----------------------------||--------------------------|----------------------------||--------------------------|----------------------------||--------------------------|----------------------------||--------------------------|----------------------------|
| | | | | || | | ||--------------------------|----------------------------||------4---4---4---4---4---|----4---4---4-------4---4---||------5---5---5---5---5---|----5---5---5-------5-3-5---||----5---5---5---5---5---5-|--5---5---5-----5---------6-||--3-----------------------|3---------------------------||--------------------------|----------------------------|
|-10------810--------------|11-----11---11-14-1114--10--||--------------------------|----------------------------||--------------------------|----------------------------||--------------------------|----------------------------||--------------------------|----------------------------||--------------------------|----------------------------|
| | | | | || | | ||--------------------------|----------------------------||------3---3---3---3---3---|----4---4---4-------4---4---||------2---2---2---2---2---|----5---5---5-------5---5---||----4---4---4---4---2---4-|--5---5---5-----5-----5---5-||--3-----------------------|3---------------------------||--------------------------|----------------------------|
|13-----12--8-8-1211-12--11--|--7-----3-------------7-8-10||----------------------------|--------------------10------||----------------------------|----------------------------||----------------------------|----------------------------||----------------------------|----------------------------||----------------------------|----------------------------|
| | | | | | | | | ||----1---3---3-------2---2---|----1---1---1---1---1-------||----1---1---1-----------1---|----3---1---0---0-----------||--1---1---0-----0---2-0---0-|--0---0---0---0---0-----0---||----------------------------|----------------------------||3---------------------------|----------------------------||----------------------------|3---------------------------|
|--8=======================|--11-----11-10111311--10--||--------------------------|--------------------------||--------------------------|--------------------------||--------------------------|--------------------------||--------------------------|--------------------------||--------------------------|--------------------------|
| | | | | | | | | ||--------------------------|--------------------------||------4---4---4---4---4---|------4---4---4---4-------||------5---5---5---5---5---|------5---5---5-----------||----5---5---5---5---5---5-|----5---5---5---5---6-----||--3-----------------------|--3-----------------------||--------------------------|--------------------------|
|--6------46===============|--4---8--68---78108---7---||--------------------------|--------------------------||--------------------------|--------------------------||--------------------------|--------------------------||--------------------------|--------------------------||--------------------------|--------------------------|
| | | | | | | | | ||--------------------------|--------------------------||------3---3---3---3---3---|------1---1---1---1---1---||------3---3---3---3---3---|------1---1---1---1---1---||----5---5---5---3---5-----|----3---3---3---1---3---0-||--3---------------------6-|--3-----------------------||--------------------------|--------------------------|
|--------------------------|15===================----810||--------------------------|---------------------1012---||--12------12==============|12===================-------||--------------------------|----------------------------||--------------------------|----------------------------||--------------------------|----------------------------|
| | | | | || | | ||--------------------------|----1---1---1---1-----1-----||------1---1---1---1---1---|----3---1---0---0-----------||------0---0---0---0---0---|--0---0---0---0----0-----0--||----1---1---1---0---1-----|----------------------------||--3---------------------3-|----------------------------||--------------------------|3---------------------------|
|-8=======================||-------------------------||-------------------------||-------------------------||-------------------------||-------------------------|
|
| | | ||-------------------------||-----4---4---4---4---4---||-----5---5---5---5---5---||---5---5---5---5---5---5-||-3-----------------------||-------------------------|
|--------------------|--------------------|--------------------||--------------------|--------------------|--8-----4-----8-----||--------------------|--------------------|--8-----5-----8-----||--------------------|--------------------|--------------------||--------------------|--------------------|--------------------||--------------------|--------------------|--------------------|
| | | | | | | | | | | | | ||--------------------|--------------------|--------------------||--------------------|--------------------|--------------------||-----------0--------|-----------0--------|-----------0--------||-----0--1-----1--0--|-----0--1-----1--0--|-----0--1-----1--0--||--3-----------------|--3-----------------|--3-----------------||--------------------|--------------------|--------------------|
|--------------------|--------------------|--------6tr=======46||--------6-----4-----|--6-----6--4--3-----|--------------------||--------6-----5-----|--7-----7--5--3-----|--------7-----------||--------------------|--------------------|--------------------||--------------------|--------------------|--------------------||--------------------|--------------------|--------------------|
| | | | | | | | | | | | | | ||--------------------|--------------------|--------------------||--------------------|--------------------|--------------------||-----------------0--|-----------3--------|-----------3--------||-----0-----0--1-----|-----0--3-----3--0--|-----0--3-----3-----||--3-----3-----------|--3-----------------|--3--------------1--||--------------------|--------------------|--------------------|
|--------------------|--------------------|--------------------||--1-----4-----3-----|--1-----3-----------|--------------------||--1-----5-----3-----|--1-----3-----3-----|--0=================||--------------------|--------------0-----|--1=================||--------------------|--------------------|--------------------||--------------------|--------------------|--------------------|
| | | | | | | | | | | | | | ||--------------------|--------------------|--------------------||--------------------|--------------------|--------------------||-----------------0--|--1--3--1--3--------|-----------0--------||-----------1--3-----|--------------------|-----0--1-----1--0--||-----1--3-----------|--------------------|--3-----------------||--4-----------------|--------------4--6--|--------------------|
|--------------------|--------------------|--------------------||--------------------|--------------------|--------3-----------||=(0)================|o-------------1-----|--4-----------------||=(1)================|o-3--5--3--5--3-----|--5-----3-----------||--------------------|--5--6--5--6--------|--------------------||--------------------|--------------------|--------------------|
| | | | | | | | | | | | | | ||--------------------|--------------------|--------------------||--------------------|--------------------|--------------------||-----------0--------|o-------------------|--------------------||-----0--1-----1--0--|o----------------1--|-----------------1--||--3-----------------|--------------------|--5--3--2-----------||--------------------|--6--4--6--4--1-----|-----------4--1-----|
|--------------------|--------------------|--------------------||--------------------|--------------------|--8-----4-----8-----||--------------------|-------------------o|--8-----5-----8-----||--0=================|=(0)===============o|--------------------||--1=================|=(1)================|--------------------||--------------------|--------------------|--------------------|
| | | | | | | | | | | | | | ||--------------------|--------------------|--------------------||-----------------1--|--3--4--6--4--3--4--|--------------------||--------------0-----|-------------------o|-----------0--------||-----------1--------|-------------------o|-----0--1-----1--0--||--5--3--5-----------|--------------------|--3-----------------||--------------------|--------------------|--------------------|
|--------------------|--------------------|--------6tr=======46||--------6-----4-----|--6-----6--4--3-----|--------------------||--------7-----5-----|--7-----7--5--3-----|--------7-----------||--------------------|--------------------|--------------------||--------------------|--------------------|--------------------||--------------------|--------------------|--------------------|
| | | | | | | | | | | | | | ||--------------------|--------------------|--------------------||--------------------|--------------------|--------------------||-----------------0--|-----------3--------|-----------3--------||-----0-----0--1-----|-----0--3-----3--0--|-----0--3-----3-----||--3-----3-----------|--3-----------------|--3--------------1--||--------------------|--------------------|--------------------|
|--------------------|--------------------|--------------------||--1-----4-----3-----|--1-----3-----------|--------------------||--1-----5-----3-----|--1-----3-----3-----|--0=================||--------------------|--------------0-----|--1=================||--------------------|--------------------|--------------------||--------------------|--------------------|--------------------|
| | | | | | | | | | | | | | ||--------------------|--------------------|--------------------||--------------------|--------------------|--------------------||-----------------0--|--1--3--1--3--------|-----------0--------||-----------1--3-----|--------------------|-----0--1-----1--0--||-----1--3-----------|--------------------|--3-----------------||--4-----------------|--------------4--6--|--------------------|
|--------------------|--------------------|--------------------||--------------------|--3-----3--4--3--4--|--1-----1-----------||=(0)================|--------------------|-----------1--0-----||=(1)================|--------------------|--------------------||--------------------|--------------------|--------------------||--------------------|--------------------|--------------------|
| | | | | | | | | | | | | | ||--------------------|--------------------|--------------------||--------------------|--------------------|--------------------||-----------0--------|--------------------|--------------------||-----0--1-----1-----|--3=================|--1=================||--3--------------1--|--2=================|--3=================||--------------------|--3=================|--3=================|
|--------------------|--------------------|--------------------||--3-----3--4--3--4--|--1=================|--3-----3--4--3--4--||--------------------|--------------------|--------------------||--------------------|--------------------|--------------------||--------------------|--------------------|--------------------||--------------------|--------------------|--------------------|
| | | | | | | | | | | | | | ||--------------------|--------------------|--------------------||--------------------|--------------------|--------------------||--------------------|--0=================|--------------------||--3=================|--1=================|--3=================||--2=================|--3=================|--2=================||--3=================|--------------------|--------------------|
|--------------------|--------------------|--------------------||--1-----1--3--1--3--|--0---1p0-----------|--3-----3--4--3--4--||--------------------|-----------2--0-----|--------------------||--------------------|--------------------|--------------------||--------------------|--------------------|--------------------||--------------------|--------------------|--------------------|
| | | | | | | | | | | | | | ||--------------------|--------------------|--------------------||--------------------|--------------------|--------------------||--1=================|--------------------|--------------------||--3=================|--0=================|--3=================||--------------------|--------------------|--2=================||--------------------|--3=================|--3=================|
|--------------------|--------------------|--------------------||--1-----------------|--------------------|--------------------||--------------------|--0-----------0-----|--------------------||--------------------|--1-----1-----1-----|--------3-----1-----||--------------------|--------3-----------|--------5-----3-----||--------------------|--------------------|--------------------|
| | | | | | | | | | | | | | ||--------------------|-----------3--------|--------1--------3--||--------------------|--1--3--4-----4--3--|--1--3-----3--4-----||--0=================|--------------------|--------------------||--1=================|--------------------|--------------------||--3=================|--------------------|--------------------||--------------------|--------------------|--------------------|
|--------------------|--------------------|--------------------||--3-----3--1--0-----|--------------------|--------------------||--5-----5--3--1-----|--------3tr=======13|--------------------||--------------------|--------------------|--------0-----------||--------------------|--------5-----------|--3-----1-----1-----||--------------------|--------------------|--4-----------------|
| | | | | | | | | | | | | | ||-----------6--------|-----------6--------|--------------1--3--||--------6-----6-----|--------6-----6-----|--------1--4--------||--5--7-----------7--|--5--7-----------3--|--1--3--------------||--------------------|--------------------|--------------------||--------------------|--------------------|--------------------||--------------------|--------------------|--------------------|
|--------------------|--------------------|--------------------||--------------------|--------------------|--------------------||--------------------|--------------------|--------------------||--------------------|--------------------|-------<1>13-<0>12--||--------------------|--------------------|-<3>15--------------||--3=================|=(3)================|--------------------|
| | | | | | | | | | | | | | ||--------------------|--------------------|--------------------||--4--6--4--6--------|--1--3--1--3--1-----|--------------------||--------------------|-----------------3--|--------------------||--------------1--3--|--------------------|--------------------||--------------------|--------------------|--------------------||--------------------|--------------------|-<1>13==============|
|--------------------|--------------------|--3=================||--------------------|--------------------|--4=================||--------------------|--------------------|--0=================||-------<0>12--------|--------------------|--------------------||-<3>15--------<1>13-|--------------------|--3=================||--------------------|--------------------|--------------------|
| | | | | | | | | | | | | | ||--------------------|--------------------|--------------------||--------------------|--------------------|--------------------||--------------------|--------------------|--------------------||--------------------|--1=================|--------------------||--------------------|--3=================|--------------------||-<1>13==============|--3=================|--------------------|
Tap to rate this tab
 
# A B C D E F G H I J K L M N O P Q R S T U V W X Y Z