Eric Johnson - Cliffs Of Dover tab version 1

Cliffs of Dover
Eric Johnson

I DID NOT TAB THIS!  This tab is already on this sight, I just went through and made it
little easier for you guys to read and understand.  All credit goes to the original
of this 100% accurate tab.  I deserve no credit for this tab.  I hope you guys now can 
this a little easier.  ALL CREDIT GOES TO THE ORIGINAL TABBER!

Play this song in standard tuning.

Intro:

|------15b17==(15)b18====(15)r-:-15-12-14----12------------------:|------------------------------:----------15----12-15b17==(15)r--:|------------------------------:---------------------------------:|------------------------------:---------------------------------:|------------------------------:---------------------------------:|-0----------------------------:---------------------------------:
|-12--------------------------12-15-14p12----14-15--------:|----15p12--------------12-15-------------15-------15-12--:|----------14b16==(14)r-----------------------------------:|---------------------------------------------------------:|---------------------------------------------------------:|---------------------------------------------------------:
|----12--------------------------------------------------------------:|-15----15p12----15p12--------------15p12--------------------------5-:|-------------14-------14b16==(14)r-------14b16==(14)r(14)p12----7---:|-------------------------------------------------------------14-----:|--------------------------------------------------------------------:|--------------------------------------------------------------------:
|---5-7-6-5-----------------------------:|-8---------8-5---5-7---5-3-------------:|---------------7-----4-----4p2---4-2---:|-------------------------------5-------:|---------------------------------------:|---------------------------------------:
|-----------------------------:-----------------------:|-----------------------------:----8b10==(8)r=(8)-----:|-----------------------------:-----------------------:|-5-2---5-2-----2-------------:-----------------------:|-----5-----5-2---5-2---------:-----------------------:|---------------------5-3b3.5-:-0---------------------:
|------------------7----8s10-(10)-8----:|-----5-----7s8-10---10-------------12-:|--------------------------------------:|---7-----9----------------------------:|-3-----5------------------------------:|--------------------------------------:
|-------------------:-----------------------------15-(15)-15-:|-------12-------13-:--------15-------17-------19------------:|-------------------:----------------------------------------:|----14-------14----:-----17-------17-------19---------------:|-10-------12-------:-/14-------15-------17------------------:|-------------------:----------------------------------------:
|----15----15----15----15----15----15----15----15-:|-19----------------------------17----19----------:|-------19----------------17----------------19----:|-------------19----17----------------------------:|-------------------------------------------------:|-------------------------------------------------:
|----15----15----15----15----15----15----15----15-:|-------------------17----19----------------17----:|-------------17----------------19----17----------:|-19----17----------------------------------------:|-------------------------------------------------:|-------------------------------------------------:
|----15----15----15----15----17-15----15-19-17-15-:|-19----------------17----19-------19-------------:|-------19----17----------------------------------:|-------------------------------------------------:|-------------------------------------------------:|-------------------------------------------------:
|----17-15----------------------------------------------------------------------:|-19-------19-15----17-15-------------------------------------------------------:|----------------17-------17-14----16-14----------16-14----------16-14----------:|-------------------------------17-------17-14----------17-14----------17-14----:|----------------------------------------------17-------------17-------------17-:|-------------------------------------------------------------------------------:
|----------------------------------------------------|||-----[18]b20==([18])r([18])b20==([18])-(18)r\-------|||-------------------------------------------------0--|||----------------------------------------------------|||----------------------------------------------------|||-15-------------------------------------------------||
Verse 1:||------------------|-------------------||--------------|--------------7---||||o-8-------8-------|-8--------8-------o||-8-------8----|-------8-(8)------||||----7p0-0---9p0-0-|---11p0-0---9p0-0--||---7p0-0------|-/7---------------||||------------------|-------------------||--------------|------------------||||o-----------------|------------------o||--------------|------------------||||------------------|-------------------||--------------|------------------||
|-10----(10)-----|-----7-10-(10)----|-8-------8--|-----------------------------||--8-----(8)-----|---8--------------|-8----------|-10b12==(10)r=(10)-8-(8)-----||--0-----(0)---5s|=7----------------|-5----------|---------------------------0-||----------------|------------------|------------|-----------------------------||----------------|------------------|------------|-----------------------------||----------------|------------------|------------|-----------------------------|
|-----------------|-----------------|--------------|----------------||-8-------8-------|-8--------8------|-8-----8------|-8--------10----||---7p0-0---9p0-0-|---11p0-0--------|---7----------|----------------||-----------------|-----------------|------------0-|------(0)-------||-----------------|-----------------|--------------|----------------||-----------------|---------------8-|-----8--------|----------------|
|-10----(10)----------|----12-14----------------||--8-----(8)-------12-|-15-------[15]-([15])----||--0-----(0)----12----|-------------------------||------------12-------|-------------------------||---------------------|-------------------------||---------------------|-------------------------|
|------------------12----|-------------------------------||-------10-15-(15)-------|-------------------------------||----12------------------|-14b16==(14)r(14)--12-(12)---0-||-10---------------------|-------------------------------||------------------------|-------------------------------||------------------------|-------------------------------|
|-----------------|---------------|----------|-------------------|||-8-------8-------|-8--------8----|----------|-------------------|||---7p0-0---9p0-0-|---11p0-0------|-5--------|-7----(7)----------|||-----------------|---------------|-5--------|-7----(7)-14s12s14-|||-----------------|---------------|-3--------|-5----(5)----------|||-----------------|---------------|----------|-------------------||
Chorus:|-------------------------|-------------------------||-------------------------|-------------------------||-17----14-17s16----12-16s|=14----11-14----11-12-14s||----14----------12-------|----12-------12----------||-------------------------|-------------------------||-------------------------|-------------------------|
|-----------------------|-------------------||-----------------------|-------------------||-16----12-16s14----11--|-12-11-------------||----12----------12-----|-------14-12-------||-----------------------|-------------14----||-----------------------|-------------------|
|-------------------------|-------------10----------||-------------------------|-------------------------||-17----14-17s16----12-16s|=14----11-14-------11-14s||----14----------12-------|----12----------12-------||-------------------------|-------------------------||-------------------------|-------------------------|
|-----------------------|---------------------------||-----------------------|-----------15b17==(15)r----||-16----12-16s14----11--|-12-11---------------------||----12----------12-----|-------14------------------||-----------------------|---------------------------||-----------------------|---------------------------|
|-------------------------|-------------------------||-------------------------|-------------------------||-17----14-17s16----12-16s|=14----11-14----11-12-14s||----14----------12-------|----12-------12----------||-------------------------|-------------------------||-------------------------|-------------------------|
|------------------------|----------------------||------------------------|----------------------||-16----12-16s14----11---|-12-11----------------||----12----------12------|-------14-12----------||------------------------|-------------14----12-||------------------------|----------------------|
|-------------------------|-------------10----------||-------------------------|-------------------------||-17----14-17s16----12-16s|=14----11-14-------11-14s||----14----------12-------|----12----------12-------||-------------------------|-------------------------||-------------------------|-------------------------|
|------------------------|-------------------||------------------------|-----------------7-||-16----12-16s14----11---|-12-11-9-------7---||----12----------12------|---------9s7-7-----||------------------------|-------------------||------------------------|-------------------|
Verse 2:|-----------------|---------------||-8-------8-------|-8--------8----||---7p0-0---9p0-0-|---11p0-0------||-----------------|---------------||-----------------|---------------||-----------------|---------------|
|-14----17------12--|-(12)-10-8-----------7--------||-------------------|-----------10--(10)----10p8---||-------------------|------------------------------||------------12-----|------------------------------||-------------------|------------------------------||-------------------|------------------------------|
|----------------|------------------|-------14-15-(15)----|--------------7--|||--------8-------|-8--------8-------|----15---------------|-------8-(8)-----|||-7----0---9p0-0-|---11p0-0---------|-14------------------|-/7--------------|||----------------|---------------12-|---------------------|-----------------|||----------------|------------------|---------------------|-----------------|||----------------|------------------|---------------------|-----------------||
|-10----(10)---------|-------12-14-------|--------10-(10)-12------||--8-----(8)---------|-12-15-------15----|------------------------||--0-----(0)------12-|-------------------|-----12--------------12s||------------/12-----|-------------------|-10---------------------||--------------------|-------------------|------------------------||--------------------|-------------------|------------------------|
|--------------------------------|-------------------||--------------------------------|-8-------8---------||-14b16==(14)r(14)---12-(12)---0-|---7p0-0---9p0-0---||--------------------------------|-------------------||--------------------------------|-------------------||--------------------------------|-------------------|
|----------------7-|-10p8---8p7-------||-8------8-----8---|------------8-----||---11p0-----9-----|------7-------9-7-||------------------|------------------||------------------|------------------||------------------|------------------|
|--------------------14-|-(14)----------------14-17-||-8------------15-17----|-------17-15-(15)-17-------||-----------14----------|---------------------------||-----------------------|---------------------------||------(17)-------------|---------------------------||-----------------------|---------------------------|
|-(17)-14---------------15--|-17b19==(17)r=(17)------------------------||---------17-15-(15)-17-----|-------------------18b20==(18)-(18)r------||---------------------------|---------------------------------------12s||---------------------------|------------------------------------------||---------------------------|------------------------------------------||---------------------------|------------------------------------------|
|---------------------|-----------------|---------------||---------------------|-8-------8-------|-8--------8----||-14----12-(12)---(0)-|---7p0-0---9p0-0-|---11p0-0------||---------------------|-----------------|---------------||---------------------|-----------------|---------------||---------------------|-----------------|---------------|
|-8--------|---------------------||-8--------|---------------------||-5--------|---------------------||----------|-12----(12)-14s12s14-||----------|-12----(12)----------||----------|-10----(10)----------|
( Repeat chorus, go into bridge)
Bridge:|---------------------||--8--8----------8----||--0------------------||-12----10-(10)----10h||---------------------||---------------------|
|------------------------|----------------------||------8-----------------|--8--8----------8-----||----0-----------(0)-----|--0-------------------||-12-----10-(10)-----10--|-12----10-(10)----10h=||------------------------|----------------------||------------------------|----------------------|
|---------------------|-14-17-12---------------------------------------||------8--------------|----------15-12----15b17==(15)r(15)-12-10----12-||----0----------------|----------------14------------------------11----||-12-----10-(10)--10--|------------------------------------------------||---------------------|------------------------------------------------||---------------------|------------------------------------------------|
|-----------------------------------||-10--------------------------------||----11-9------11-9-----------------||---------12-9------12-9------------||------------------------12-9-------||-----------------------------12-10-|
|--------------------|---------------------||----8----------8----|------8--------------||-0------------------|----0----------------||-0----10-(10)----10h|=12-----10-(10)--10--||--------------------|---------------------||--------------------|---------------------|
|-----------------------|-----------------7----||-------8-(8)-10--12s10-|-(10)-8--10-(10)------||-7-7-9-----------------|----------------------||-----------------------|----------------------||-----------------------|----------------------||-----------------------|----------------------|
|-(10)------------------|---------------------||---8---8----------8----|------8--------------||---0-------------------|----0----------------||---0-----10-(10)----10h|=12-----10-(10)--10--||-----------------------|---------------------||-----------------------|---------------------|
|---------------------8-12p10-|-(10)--(10)-8-7------------||-------8-(8)-10-(10)---------|----------------8-(8)------||-7-7-9-----------------------|-----------------------9-7-||-----------------------------|---------------------------||-----------------------------|---------------------------||-----------------------------|---------------------------|
|---------------|------------------------|-----------------------||-8--------8----|--------8---------------|-------8-(8)-10--12s10-||-------0-------|------------------------|-7-7-9-----------------||------10----10h|=12-10-12-10-(10)--10---|-----------------------||---------------|------------------------|-----------------------|
|-----------------7-(7)--|-10---------------------||-(10)-8--10-(10)--------|--8--8----------8-------||------------------------|--0---------------------||------------------------|--0----10-(10)----10h===||------------------------|------------------------||------------------------|------------------------|
|----------------------|---------------------||------8---------------|--8--8----------8----||----0-----------------|--0------------------||-12-----10-(10)--10---|-12----10-(10)----12-||----------------------|---------------------||----------------------|---------------------|
|--------------------------------||-----------------------||----12-10b11==(10)r(10)---------||-----10----10----10----||------------------------12-9-12-||---0-------------------||--------------------------------||--------10----10----12-||--------------------------------||-----------------------||--------------------------------||-----------------------|
|------------------------------------||--------12-10b11==(10)r(10)---------||----------------------------12-9-12-||---(10)-----------------------------||------------------------------------||------------------------------------|
|-----------------------|-------------------------------||-----10----10----10----|--------12-8b9==(8)r(8)--------||---0-------------------|------------------------12-----||--------10----10----12-|---(10)------------------------||-----------------------|-------------------------------||-----------------------|-------------------------------|
|------------------------10-||----10-12-13-(13)-10-12-10-||----------12-(12)-------12-||-12-------10-(10)----------||-10------------------------||--8------------------------|
|-(10)-------12-(12)-----|----------|----------------|||-(10)-12-10-13-(13)-----|-8--------|-10-------------|||-(12)-------12-(12)-----|-7--------|--7-------------|||------------------------|-0--------|--0----------14-|||------------------------|----------|----------12----|||------------------------|----------|----------------||
Guitar Solo|----------------|-------------------------------10h||----------------|----------------------------------||-14----------12-|-14b16==(14)r=(14)-12-(12)--------||----------14----|----------------------------14----||----------------|----------------------------------||----------------|----------------------------------|
|-12----10-12p10-------10----|--------------------------||----------------12p10----12-|-10-----------------------||----------------------------|----12-9-12--------14-17--||----------------------------|---------------/14--------||----------------------------|--------------------------||----------------------------|--------------------------|
|------------------------|-------------17----||------15-17-17-20-19-20-|-19-------19----20-||-(17)-------------------|-------17----------||------------------------|-------------------||------------------------|----17-------------||------------------------|-------------------|
|------------------------------|------------------||-19b21==(19)----(19)r(19)-17--|------------------||------------------------------|------------------||------------------------------|------------------||------------------------------|-------5h7----(5)-||------------------------------|-x\---------------|
|---------------|------------------||---------------|-8-------10-------||---------------|------------------||-5S7----7-9-10-|------12-------14-||---------------|------------------||---------------|------------------|
|-------------------------|--------------------||-12------12s13-15--15h17-|-15-------------12--||-------------------------|-----\14-12-12------||----(14)-----------------|--------------------||-------------------------|--------------------||-------------------------|--------------------|
|---------------------|---------------------||---------------------|----------15-(15)----||-14------------------|-------14------------||-----14--------------|----12---------------||--------15-(15)------|---------------------||-----------------15--|-14------------------|
|----------14-(14)--(14)/--|----------------15-19--15-19p15--||-------12-----------------|----------15-17------------------||--------------------------|-------16------------------------||-12-14--------------------|-14-17---------------------------||--------------------------|---------------------------------||--------------------------|---------------------------------|
|-17-15---------------------------------||-------17-15----17-15---------------17-||-------------17-------17-14------------||----------------------------17-14-x----||---------------------------------------||---------------------------------------|
|------------------------------------------15--||-15-15-17-20p15-------------------------------||----------------16-14----16-14----------------||----------------------17-------17-14-(14)-----||----------------------------------------------||----------------------------------------------|
|-14p10------------------------------||------------------------------------||-------14-12-------11p9-9p7---------||-------------14-12----------9-7-9-7-||------------------------------------||------------------------------------|
|--------------------|-12------------------||--------------------|----15-12-13-(13)----||--------------------|---------------------||--------------------|---------------------||-10-7---------------|---------------------||------10-7p0-(0)----|---------------------|
|-------------------------|---------------------||-15-13-12-------------12-|-----13----15-----17-||----------14-(14)-14-----|-/16----17----/19----||-------------------------|---------------------||-------------------------|---------------------||-------------------------|---------------------|
|----------19-(19)--15--|-----15--15-----15-||-17-19h20--------------|-19----------19----||-----------------------|-------------------||-----------------------|-------------------||-----------------------|-------------------||-----------------------|-------------------|
|----15----15----15----15----15----15-||-------------------------17----19----||-19----------------17----------------||-------19----17----------------------||-------------------------------------||-------------------------------------|
|----15----15----15----15----|-17-19s20-19-(19)-(19)\------||-------------17----19----19-|-----------------------------||-19----17-------------------|-----------------------------||----------------------------|-----------------------------||----------------------------|--------------------------14-||----------------------------|-----------------------------|
|-----------------------|----------------16-17--||-------------15-17-----|----------16-17--------||----------16-----------|-------17--------------||----14-17--------------|-16-19-----------------||-15-----------------18-|-----------------------||-----------------------|-----------------------|
|-19-------20--|-20b22==(20)---(20)r\----------|||--------------|-------------------------------|||--------------|-------------------------------|||--------------|----------------------14s12s14-|||--------------|-------------------------------|||--------------|-------------------------------||
|-------------------------|-------------------------||-------------------------|-------------------------||-17----14-17s16----12-16s|=14----11-14----11-12-14s||----14----------12-------|----12-------12----------||-------------------------|-------------------------||-------------------------|-------------------------|
|-----------------------|-------------------||-----------------------|-------------------||-16----12-16s14----11--|-12-11-------------||----12----------12-----|-------14-12-------||-----------------------|-------------14----||-----------------------|-------------------|
|-------------------------|---------------------------12-------------||-------------------------|-------15b17==(15)--(15)r-----14b17==(14)-||-17----14-17s16----12-16s|=14---------------------------------------||----14----------12-------|----12------------------------------------||-------------------------|------------------------------------------||-------------------------|------------------------------------------|
|-----------------------------------------12-|----14-15-17-19----||-(14)r-----------------------------12-15----|-17----------------||-------14pb15r(14)-12-14b16==(14)r----------|-------------------||--------------------------------------------|-------------------||--------------------------------------------|-------------------||--------------------------------------------|-------------------|
|-20----17-20s19----15-19s|=17----14-17----14-15-17s||----17----------15-------|----15-------15----------||-------------------------|-------------------------||-------------------------|-------------------------||-------------------------|-------------------------||-------------------------|-------------------------|
|-19----15-19s17----14---|-15-14-12----------||----15----------15------|----------15-------||------------------------|-------------16----||------------------------|-------------------||------------------------|-------------------||------------------------|-------------------|
|------------------------|-14h17p14---------------||------------------------|----------15------------||-17----14-17s16----12---|-------------14---------||----14----------12------|----------------0--0----||------------------------|------------------------||------------------------|------------------------|
|-------------------------|---------------------||-------------------------|-----------------7---||-16----12-16s14----11-14s|=12-11-9-------7-----||----12----------12-------|---------9s7-7-------||-------------------------|---------------------||-------------------------|---------------------|
|-----------------|------------------|----------------||-8-------8-------|-8--------8-------|-8-------8------||---7p0-0---9p0-0-|---11p0-0---9p0-0-|---7p0-0------7-||-----------------|------------------|----------------||-----------------|------------------|----------------||-----------------|------------------|----------------|
|-8-8p7---10--------|-----------------|----------------|||-------8-----------|-8-------8-------|-8--------8-----|||---------------(0)-|---7p0-0---9p0-0-|---11p0-0-------|||-------------------|-----------------|----------------|||-------------------|-----------------|----------------|||-------------------|-----------------|----------------||
Outro:|-----------------15-------15-20s19-15----:|-18b20==(18)r-------15-17-------------17-:|-----------------------------------------:|-----------------------------------------:|-----------------------------------------:|-----------------------------------------:
|-17-15----15-14----------15-14-------12----12----:|-------17-------17-15-13-------15-13----15----15-:|-------------------------------------------------:|-------------------------------------------------:|-------------------------------------------------:|-------------------------------------------------:
|-------------------------------------10h12----:|-13-12----------------------------12-------12-:|-------14-12S10-14b16==(14)-(14)r-------------:|----------------------------------------------:|----------------------------------------------:|----------------------------------------------:
|--------------------------:---------*||-10-----------------------:---------*||----12-9------------12----:-(12)----*||---------12-9-------12----:-(12)----*||--------------12s10-10----:-(10)----*||--------------------------:---------*|
LEGEND: S=slide H=hammer-on P=pull-off B=bend R=return
Tap to rate this tab
 
# A B C D E F G H I J K L M N O P Q R S T U V W X Y Z