Escape The Fate - My Apocalypse tab version 3

Cooper Lagace
********************************
*DISCLAIMER*********************
*this is not my work, it is the*
*work of the artist, NOT me*****
********************************

|-------------------------------------------------------------------||---8-88---8-----------------8-88-8-8h10p8---8----------------------||---9-99---9----9-9--9--9----9-99-9--------10--9--9-9--9-9--9-9--9--||---7-77---7---10-10-10-10---7-77-7------------10-1010-1010-1010-10-||-0-0-00-0-0--8-8-8--8--8--0-0-00-0------------8--8-8--8-8--8-8--8--||-------------------------------------------------------------------|
|-15p12-------15p12-------15p12-------15p12-------------------15p12-------||-------13p12-------13p12-------13p12-------13p12-------13p12-------13p12-||-------------------------------------------------15/17-------------------||-------------------------------------------------------------------------||-------------------------------------------------------------------------||-------------------------------------------------------------------------|
-----------------------|-13h15p13p12-12h13p12--|-----------------------|-----------------------|-----------------------|-----------------------|
|-------15p12-------15p12-------15p12-------15p12------------15p12----------||-13p12-------13p12-------13p12-------13p12-------------13p12------13p12----||-------------------------------------------------15/17---------------------||---------------------------------------------------------------------------||---------------------------------------------------------------------------||---------------------------------------------------------------------------|
-------------------------|-13h15-13h15-15/17-------|-------------------------|-------------------------|-------------------------|-------------------------|
|-15p12-------15p12-------15p12-------15p12-------------------15p12-------||-------13p12-------13p12-------13p12-------13p12-------13p12-------13p12-||-------------------------------------------------15/17-------------------||-------------------------------------------------------------------------||-------------------------------------------------------------------------||-------------------------------------------------------------------------|
-----------------------|-13h15p13p12-12h13p12--|-----------------------|-----------------------|-----------------------|-----------------------|
|-------15p12-------15p12-------15p12-------15p12------------15p12-------||-13p12-------13p12-------13p12-------13p12------------13p12-------13p12-||------------------------------------------------15/17-------------------||------------------------------------------------------------------------||------------------------------------------------------------------------||------------------------------------------------------------------------|
-------------------------|-13h15p13p12-12h13p12-13-|-------------------------|-------------------------|-------------------------|-------------------------|
|-------------------------------------------------||-20----20----20----20----20----20----17----------||----17----17----17----17----17----17----17----17-||-------------------------------------------19----||-------------------------------------------------||-------------------------------------------------|x4
|-------------------------------------------------||------------------------10------10------5------5-||------------------------9-------9-------5------5-||-///////-----------77-7----77-7----33-3---33-3---||-///////pickslide--77-7----77-7----33-3---33-3---||-///////-----------77-7----77-7----33-3---33-3---|x2
|-15p12-------15p12-------15p12-------15p12-------------------15p12-------||-------13p12-------13p12-------13p12-------13p12-------13p12-------13p12-||-------------------------------------------------15/17-------------------||-------------------------------------------------------------------------||-------------------------------------------------------------------------||-------------------------------------------------------------------------|
-----------------------|-13h15p13p12-12h13p12--|-----------------------|-----------------------|-----------------------|-----------------------|
|-------15p12-------15p12-------15p12-------------------15p12-------||-13p12-------13p12-------13p12-------13p12-------13p12-------13p12-||-------------------------------------------15/17-------------------||-------------------------------------------------------------------||-------------------------------------------------------------------||-------------------------------------------------------------------|
-------------------------|-13h15-13h15-15/17-------|-------------------------|-------------------------|-------------------------|-------------------------|
|-15p12-------15p12-------15p12-------15p12-------------------15p12-------||-------13p12-------13p12-------13p12-------13p12-------13p12-------13p12-||-------------------------------------------------15/17-------------------||-------------------------------------------------------------------------||-------------------------------------------------------------------------||-------------------------------------------------------------------------|
-----------------------|-13h15p13p12-12h13p12--|-----------------------|-----------------------|-----------------------|-----------------------|
|-------15p12-------15p12-------15p12------15p12-------------15p12-------||-13p12-------13p12-------13p12-------13p12------------13p12-------13p12-||------------------------------------------------15/17-------------------||------------------------------------------------------------------------||------------------------------------------------------------------------||------------------------------------------------------------------------|
-------------------------|-13h15p13p12-12h13p12-13-|-------------------------|-------------------------|-------------------------|-------------------------|
|---------------------------------------------------||--------------------10-10-10-10-10-10-1010---------||--------------------9--9--9--9--9--9---99----------||-////////-----------7--7--7--7--7--7---77--5~-0~---||-////////pickslide--7--7--7--7--7--7---77--5~-0~---||-////////-----------7--7--7--7--7--7---77--5~-0~---|
|---------------------------------------||-10-10-10-10-10-10-1010----------------||-9--9--9--9--9--9---99-----------------||-7--7--7--7--7--7---77--3~-5~-3~-00-00-||-7--7--7--7--7--7---77--3~-5~-3~-00-00-||-7--7--7--7--7--7---77--3~-5~-3~-00-00-| PM|*******|
|---------------------------------||--------10------10------5------5-||--------9-------9-------5------5-||---77-7----77-7----33-3---33-3---||---77-7----77-7----33-3---33-3---||---77-7----77-7----33-3---33-3---|x2
|-15p12-------15p12-------15p12-------15p12-------------------15p12-------||-------13p12-------13p12-------13p12-------13p12-------13p12-------13p12-||-------------------------------------------------15/17-------------------||-------------------------------------------------------------------------||-------------------------------------------------------------------------||-------------------------------------------------------------------------|
-----------------------|-13h15p13p12-12h13p12--|-----------------------|-----------------------|-----------------------|-----------------------|
|-------15p12-------15p12-------15p12-------------------15p12-------||-13p12-------13p12-------13p12-------13p12-------13p12-------13p12-||-------------------------------------------15/17-------------------||-------------------------------------------------------------------||-------------------------------------------------------------------||-------------------------------------------------------------------|
-------------------------|-13h15-13h15-15/17-------|-------------------------|-------------------------|-------------------------|-------------------------|
|-15p12-------15p12-------15p12-------15p12-------------------15p12-------||-------13p12-------13p12-------13p12-------13p12-------13p12-------13p12-||-------------------------------------------------15/17-------------------||-------------------------------------------------------------------------||-------------------------------------------------------------------------||-------------------------------------------------------------------------|
-----------------------|-13h15p13p12-12h13p12--|-----------------------|-----------------------|-----------------------|-----------------------|
|-------15p12-------15p12-------15p12------15p12-------------15p12-------||-13p12-------13p12-------13p12-------13p12------------13p12-------13p12-||------------------------------------------------15/17-------------------||------------------------------------------------------------------------||------------------------------------------------------------------------||------------------------------------------------------------------------|
----------------------------|-13h15p13p12-12h13p12-13~~~-|----------------------------|----------------------------|----------------------------|----------------------------|
|__--Solo--__||--------------------------------------------------------------||-12~-10~-12~-13~-15~-12~-10~-13~-12~-10~-12~-13~-15~-17~-15~--||--------------------------------------------------------------||--------------------------------------------------------------||--------------------------------------------------------------||--------------------------------------------------------------|
Speed: Slow|-t12p5h7h8x2--t13p5h7h8x2--t10p5h7h8x2--t15p5h7h8--t17p5h7h8--||--------------------------------------------------------------||--------------------------------------------------------------||--------------------------------------------------------------||--------------------------------------------------------------||--------------------------------------------------------------|
Speed: Medium|-t12p5h7h8x4--t13p5h7h8x4--t10p5h7h8x4--t15p5h7h8x2-t17p5h7h8-t17~-||-------------------------------------------------------------------||-------------------------------------------------------------------||-------------------------------------------------------------------||-------------------------------------------------------------------||-------------------------------------------------------------------|
Speed: Fast|-t12p5h7h8x8--t13p5h7h8x8--t10p5h7h8x8--t15p5h7h8x4--t17p5h7h8x2--||------------------------------------------------------------------||------------------------------------------------------------------||------------------------------------------------------------------||------------------------------------------------------------------||------------------------------------------------------------------|
|-t12p5h7h8--t13p5h7h8--t12p5h7h8--t15p5h7h8--||---------------------------------------------||---------------------------------------------||---------------------------------------------||---------------------------------------------||---------------------------------------------| x2
|-t12p5h7h8--t17p5h7h8--t12p5h7h8--t17p5h7h8--||---------------------------------------------||---------------------------------------------||---------------------------------------------||---------------------------------------------||---------------------------------------------| x2
|-8p5-8p5-7p55-7p55-7p5-5p0-5p0-||-------------------------------||-------------------------------||-------------------------------||-------------------------------||-------------------------------| x4
|-13p0-12p0-8p0-7p0-8p0-7p0-5p0-7p0-||-----------------------------------||-----------------------------------||-----------------------------------||-----------------------------------||-----------------------------------| x3
|-800-700-500-700-5h7p5-||-----------------------||-----------------------||-----------------------||-----------------------||-----------------------|
|-18/20-20--18-18--15-15--12-12--||--------------------------------||--------------------------------||--------------------------------||--------------------------------||--------------------------------| x12 until end of song
Enjoy !
Tap to rate this tab
 
# A B C D E F G H I J K L M N O P Q R S T U V W X Y Z