Human After All tab with lyrics by Europe - Easy chords and tabs for guitar

Europe – Human After All tab

My first tab :)


Tuning: Drop-D (D A D G B E)

Figure 1.

|-----------------------------------------------||-----------------------------------------------||-----------------------------------------------||-----------------------------------------------||0--10-12-0-5-7--10---9-0-5-7----5-4--0---------||0--10-12-0-5-7--10---9-0-5-7----5-4--0---------|
|-----------------------------------------------||-----------------------------------------------||-----------------------------------------------||-----------------------------------------------||-10-12--0-5-7----10---9-0-5-7--5----0----------||-10-12--0-5-7----10---9-0-5-7--5----0----------|
|-----------------------------------------------||-----------------------------------------------||-----------------------------------------------||-----------------------------------------------||-10-12--0-5-7----10---9-0-5-7---5-4-0----------||-10-12--0-5-7----10---9-0-5-7---5-4-0----------|
|-----------------------------------------------||-----------------------------------------------||-----------------------------------------------||-----------------------------------------------||-----------------------------------------------||-10-12-0--5-7---10-----x-x-x-x-x-x-x-----------||-10-12-0--5-7---10-----x-x-x-x-x-x-x-----------|
Figure 2.
|-----------------------------------------------||-----------------------------------------------||-----------------------------------------------||----5-7------2--5---4-----2--------------------||-0--3-5--0-5-0--3---2-0-5-0----5-4--0----------||-0-------0-5----------0-5------5-4--0----------|
|-----------------------------------------------||-----------------------------------------------||-----------------------------------------------||-5-7-------2----5---4-----2--------------------||-3-5--0--5-0----3---2-0-5-0--5----0------------||------0--5------------0-5----5----0------------|
|-----------------------------------------------||-----------------------------------------------||-----------------------------------------------||-5-7-------2----5---4-----2--------------------||-3-5--0--5-0----3---2-0-5-0---5-4--0-----------||------0--5------------0-5-----5-4--0-----------|
|-----------------------------------------------||-----------------------------------------------||-----------------------------------------------||-5-7-------2---5-----x-x-x-x-x-x-x-------------||-3-5--0--5-0---3-----x-x-x-x-x-x-x-------------||------0--5-------------------------------------|
Don't expect to find any timings in this tab, I'm not THAT good.... If you have any suggestions comments please write in comments :)
Please rate this tab:
x1.0