Eve 6 - Rescue tab

There are a lot of effects going on in this song, but here are the basics.

Intro:|---5----------5-------------5----------||------5-----------------5--------------||---------------------------------------| (x5)|----------7--------7-------------------||---------------------------------------||---------------------------------------|
|---5-----------7-------7---------------||------5------------5-------------------||---------------------------------------||----------7----------------------------||---------------------------------------||---------------------------------------|
|---5----------5-------------5----------||------5-----------------5--------------||---------------------------------------| (x4)|----------7--------7-------------------||---------------------------------------||---------------------------------------|
Verse 1:|-----------------------------------------------------||-----------------------------------------------------||--------------------9----9--------12----12-----------| (x5)|--2--2-2-2----------x----x---------x-----x-----------||--2--2-2-2----------7----7--------10----10-----------||--0--0-0-0-------------------------------------------|pm.........
|--------------------------------------------------------------------------||--------------------------------------------------------------------------||--------------------9----9--------12----12--------9----9--9--9------------||--2--2-2-2----------x----x---------x-----x--------x----x--x--x------------||--2--2-2-2----------7----7--------10----10--------7----7--7--7------------||--0--0-0-0----------------------------------------------------------------|pm.........
|-----------------------------------------------------||-----------------------------------------------------||--------------------9----9--------12----12-----------| (x3)|--2--2-2-2----------x----x---------x-----x-----------||--2--2-2-2----------7----7--------10----10-----------||--0--0-0-0-------------------------------------------|pm.........
Pre-Chorus:|--0--0--0--0----0--0--0--0----0--0--0--0----0--0--0--0----0--0--0--0-----0---0---0---0-------||--0--0--0--0----0--0--0--0----0--0--0--0----0--0--0--0----0--0--0--0-----0---0---0---0-------||--4--4--4--4----7--7--7--7----9--9--9--9----7--7--7--7----9--9--9--9----12--12--12--12-------||--x--x--x--x----x--x--x--x----x--x--x--x----x--x--x--x----x--x--x--x-----x---x---x---x-------||--2--2--2--2----5--5--5--5----7--7--7--7----5--5--5--5----7--7--7--7----10--10--10--10-------||---------------------------------------------------------------------------------------------|
|--0--0----0-0----0--0----0-0------||--3--3----3-3----3--3----3-3------||--2--2----2-2----2--2----2-2------||----------------------------------||----------------------------------||----------------------------------|
Chorus:|-----------------------------------------------------||-----------------------------------------------------||--2~------------------4~--------------7~-------------| (x3)|--2~--------2~--------4~--------4~----7~-------------||--0~--------2~--------2~--------4~----5~-------------||------------0~------------------2~-------------------|
|-----------------------------------------------------||-----------------------------------------------------||--2~------------------4~--------7~-------------------||--2~--------2~--------4~--------7~-------------------||--0~--------2~--------2~--------5~-------------------||------------0~---------------------------------------|
Verse 2:|-----------------------------------------------------||-----------------------------------------------------||--------------------9----9--------12----12-----------| (x4)|--2--2-2-2----------x----x---------x-----x-----------||--2--2-2-2----------7----7--------10----10-----------||--0--0-0-0-------------------------------------------|pm.........
|--------------------------------------------------------------------------||--------------------------------------------------------------------------||--------------------9----9--------12----12--------9----9--9--9------------||--2--2-2-2----------x----x---------x-----x--------x----x--x--x------------||--2--2-2-2----------7----7--------10----10--------7----7--7--7------------||--0--0-0-0----------------------------------------------------------------|pm.........
|--------------------------------------------------------------------------||--------------------------------------------------------------------------||-------------------12--12--------12--12-----------------------------------|(x3)|--2--2-2-2----------x---x---------x---x-----------------------------------||--2--2-2-2---------10--10--------10--10-----------------------------------||--0--0-0-0----------------------------------------------------------------|pm.........
Pre-Chorus:|--0--0--0--0----0--0--0--0----0--0--0--0----0--0--0--0----0--0--0--0-----0---0---0---0-------||--0--0--0--0----0--0--0--0----0--0--0--0----0--0--0--0----0--0--0--0-----0---0---0---0-------||--4--4--4--4----7--7--7--7----9--9--9--9----7--7--7--7----9--9--9--9----12--12--12--12-------||--x--x--x--x----x--x--x--x----x--x--x--x----x--x--x--x----x--x--x--x-----x---x---x---x-------||--2--2--2--2----5--5--5--5----7--7--7--7----5--5--5--5----7--7--7--7----10--10--10--10-------||---------------------------------------------------------------------------------------------|
|--0--0----0-0----0--0----0-0------||--3--3----3-3----3--3----3-3------||--2--2----2-2----2--2----2-2------||----------------------------------||----------------------------------||----------------------------------|
Chorus:|-----------------------------------------------------||-----------------------------------------------------||--2~------------------4~--------------7~-------------| (x4)|--2~--------2~--------4~--------4~----7~-------------||--0~--------2~--------2~--------4~----5~-------------||------------0~------------------2~-------------------|
Solo:|----------------------------------------------------/17~-----(/19~)-----------------||--14~--------12~----14~----10~------------------------------------------------------||------------------------------------------------------------------------------------||------------------------------------------------------------------------------------||------------------------------------------------------------------------------------||------------------------------------------------------------------------------------|
Pre-Chorus:|-----------------------------------------------------||-----------------------------------------------------||--2~------------------4~--------------7~-------------||--2~--------2~--------4~--------4~----7~-------------||--0~--------2~--------2~--------4~----5~-------------||------------0~------------------2~-------------------|
|--------------------------------------||--------------------------------------||--2~------------------4~--------------||--2~--------2~--------4~--------------||--0~--------2~--------2~--------------||------------0~------------------------|
|--0--0----0-0----0--------------------||--3--3----3-3----3--------------------||--2--2----2-2----2--------------------||--------------------------------------||--------------------------------------||--------------------------------------|
Chorus:|-----------------------------------------------------||-----------------------------------------------------||--2~------------------4~--------------7~-------------||--2~--------2~--------4~--------4~----7~-------------||--0~--------2~--------2~--------4~----5~-------------||------------0~------------------2~-------------------|
|-----------------------------------------------------||-----------------------------------------------------||--2~------------------4~--------7~----9~-------------||--2~--------2~--------4~--------7~----9~-------------||--0~--------2~--------2~--------5~----7~-------------||------------0~---------------------------------------|
|-----------------------------------------------------||-----------------------------------------------------||--2~--------4~--------6~--------7~-------------------| (x2)|--2~--------4~--------6~--------7~-------------------||--0~--------2~--------4~--------5~-------------------||-----------------------------------------------------|
Outro: (x2)|-----------------------------------------------------||-----------------------------------------------------||--2~------------------4~--------------7~-------------||--2~--------2~--------4~--------4~----7~-------------||--0~--------2~--------2~--------4~----5~-------------||------------0~------------------2~-------------------|
Notes: - The chorus chords can be strummed how ever many times you want, but 8 times seems to well. - If you want to imitate the effects going on in the chorus and at the end, just hit notes:
|--17----17--17----17------------------||--------------------------------------||--------------------------------------||--------------------------------------||--------------------------------------||--------------------------------------|
Tap to rate this tab
 
# A B C D E F G H I J K L M N O P Q R S T U V W X Y Z