Extreme – Politicalamity tab

#----------------------------------PLEASE NOTE--------------------------------#
#This file is the author's own work and represents their interpretation of the#
#song. You may only use this file for private study, scholarship, or research.#
#-----------------------------------------------------------------------------#

Date: Thu, 23 Apr 1998 13:57:33 +0100
From: Gundam 
Subject: e/extreme/politicalamity.tab

Politicalamity (EXTREME)

Transcription by Gundam

Rithm Guitar (Dist.) E||-----------------------------|--------------------------|B||-----------------------------|--------------------------|G||--11b---11--9--11--9~-----9--|----9-9-7-----------------|D||-----------------------------|-----------9--7--5--7b-5--|A||-----------------------------|--------------------------|E||----------------------0-0----|--------------------------|
-------------------------|-----------------------------|-------------------------|--8-8-----8------8------8----|-------------------------|--7-7-----7------7------7----|--7--5-----------2-------|--6-6-----6------6------6----|-------7~----------------|--7-7-----7------7------7----|-------------------0-0-0-|------0-0----0-0----0-0------|
----------------------------|------------------------------|----------------------------|------------------------------|----------------------------|------------------------------|--2-------------------------|------------------------------|--2---------------------5-7-|----------------------------5-|--0----4--x-x-5--x-6--7-----|----0--4--x-x-5--x-6--6-6h7---|
------------------------------|-----------------------------|------------------------------|-----------------------------|------------------------------|-----------------------------|--5---------------------------|-----------------------------|----5-7\------------------5-7-|----------------------5-6----|---------4--x-x-5--x-6--x-----|--0--4---x-5--x-6-7-7-----7\-|
----------------------------|------------------------------|----------------------------|------------------------------|----------------------------|------------------------------|--2-------------------------|------------------------------|--2---------------------5-7-|----------------------------5-|--0----4--x-x-5--x-6--7-----|----0--4--x-x-5--x-6--6-6h7---|
------------------------------|-------------------------------------|------------------------------|-------------------------------------|------------------------------|-------------------------------------|--5-6-------------------------|-------------------------------------|------7\------------------5-7-|--------------------4~-----5-----5-7-|---------4--x-x-5--x-6--7-----|--0-5-6-5-3-0-5-3-0----3-0---3-0-----|
Guitar Clean/Lyrics Verse 1 ------------------------|----------6/7-7-7\6-7------|---------8--8-8--8------|----------6/7-7-7\6-7------|---------7--7-7--7------|----------6/7-7-7\6-7------|------------------------|--x--9----8/9-9-9\8-9------|------------------------|---------------------------|--0------------------0--|------------------------0--|
---------10-10----10--9-7------|------------0--|------------------------|---------8--8-----8-----8------|------5--4--3--|------8---8---8---8-----|-------------------------------|------7--6--4--|------7---7---7---7-----|-------------------------------|---------------|------------------------|----------------x--------------|---------------|------------------------|--x--x-x--------------------0--|--x-x----------|--0------------------0--|
----------6/7-7-7\6-7------|---------10-10----10--9-7------|--------------|----------6/7-7-7\6-7------|---------8--8-----8-----8------|-----5--6--7--|----------6/7-7-7\6-7------|-------------------------------|-----7--6--4--|--x--9----8/9-9-9\8-9------|-------------------------------|--------------|---------------------------|----------------x--------------|--------------|------------------------0--|--x--x-x--------------------0--|--x-----------|
--------------------------|----------6/7-7-7\6-7------|-----------8--8-8--8------|----------6/7-7-7\6-7------|-----------7--7-7--7------|----------6/7-7-7\6-7------|--------------------------|--x--x----8/9-9-9\8-9------|--------------------------|---------------------------|--0--x--x--------------0--|------------------------0--|
Guitar Dist./Lyrics Bridge1 ---------10-10----10--9-7------|--------------|---------------------------|---------8--8-----8-----8------|-----5--6--7--|---------------------------|-------------------------------|-----7--6--4--|---------------------------|-------------------------------|--------------|--------7----------7-------|----------------x--------------|--------------|-----6-----6-----9---------|--x--x-x--------------------0--|--x-----------|--7-----------7-------5-5--|
--------------------------|--------------------------|--------------------------|--------------------------|--------------------------|-----7--7~--------7~------|-------5----------5----2--|-----6--6~--------6~------|----4-----4-----7------2--|--------------------------|-------------5-------0-0--|---0---------0--0-----0-0-|
------------15--------------|---------------------------|-------15--------15---15\---|---------------------------|--14b-----------------14\---|---------------------------|----------------------------|--------7----------7-------|----------------------------|-----6-----6-----9---------|----------------------------|--7-----------7-------5-5--|
--------------------------|---------------------------|--------------------------|---------------------------|--------------------------|---------------------------|-------5----------5-------|-------3-----------2-------|----4-----4-----7---------|----2-----2------1----1----|-------------5-------0-3--|------------3-2~--------2~-|
Lyrics Chorus --------------------------|----------------------------|--------------------------|----------------------------|--------------------------|----------------------------|--------------------------|----------------------------|-----------------------7--|--------------------------5-|--0----4--x-x-5--x-6------|----0--4--x-x-5--x-6--6-7---|
------------------------------|------------------------------|------------------------------|------------------------------|------------------------------|------------------------------|--5---------------------------|------------------------------|----5-7\------------------5-7-|-----------------------5-6----|---------4--x-x-5--x-6--7-----|--0--4--x-x-5--x-x-7-7-----7\-|
----------------------------|------------------------------|----------------------------|------------------------------|----------------------------|------------------------------|----------------------------|------------------------------|------------------------5-7-|----------------------------5-|--0----4--x-x-5--x-6--7-----|----0--4--x-x-5--x-6--6-6h7---|
------------------------------|-------------------------------------|------------------------------|-------------------------------------|------------------------------|-------------------------------------|--5-6-------------------------|-------------------------------------|------7\------------------5-7-|--------------------4~-----5-----5-7-|---------4--x-x-5--x-6--7-----|--0-5-6-5-3-0-5-3-0----3-0---3-0-----|
Guitar Clean/Lyrics Verse 2 ------------------------|----------6/7-7-7\6-7------|---------8--8-8--8------|----------6/7-7-7\6-7------|---------7--7-7--7------|----------6/7-7-7\6-7------|------------------------|--x--9----8/9-9-9\8-9------|------------------------|---------------------------|--0------------------0--|------------------------0--|
---------10-10----10--9-7------|------------0--|------------------------|---------8--8-----8-----8------|------5--4--3--|------8---8---8---8-----|-------------------------------|------7--6--4--|------7---7---7---7-----|-------------------------------|---------------|------------------------|----------------x--------------|---------------|------------------------|--x--x-x--------------------0--|--x-x----------|--0------------------0--|
----------6/7-7-7\6-7------|---------10-10----10--9-7------|--------------|----------6/7-7-7\6-7------|---------8--8-----8-----8------|-----5--6--7--|----------6/7-7-7\6-7------|-------------------------------|-----7--6--4--|--x--9----8/9-9-9\8-9------|-------------------------------|--------------|---------------------------|----------------x--------------|--------------|------------------------0--|--x--x-x--------------------0--|--x-----------|
--------------------------|----------6/7-7-7\6-7------|-----------8--8-8--8------|----------6/7-7-7\6-7------|-----------7--7-7--7------|----------6/7-7-7\6-7------|--------------------------|--x--9----8/9-9-9\8-9------|--------------------------|---------------------------|--0--x--x--------------0--|------------------------0--|
Guitar Dist./Lyrics Bridge 2 ---------10-10----10--9-7------|--------------|---------------------------|---------8--8-----8-----8------|-----5--6--7--|---------------------------|-------------------------------|-----7--6--4--|---------------------------|-------------------------------|--------------|--------7----------7-------|----------------x--------------|--------------|-----6-----6-----9---------|--x--x-x--------------------0--|--x-----------|--7-----------7-------5-5--|
--------------------------|--------------------------|--------------------------|--------------------------|--------------------------|-----7--7~--------7~------|-------5----------5----2--|-----6--6~--------6~------|----4-----4-----7------2--|--------------------------|-------------5-------0-0--|---0---------0--0-----0-0-|
Muted dist. (* are 16th the other are all 32th!!) :o -----------------------------------------------------------12---------------------------------------------------------------12----------15----15-12-15-12---------------------------------12------------*13----13----12-------------------15-14---------12-------------14----14-12----12----------14-----------------------------*14-14----14-12----12-------------14------------------------------------------------------------15-------------------------------------------------------------
Dist. ---------------------------|--------------------------|---------------------------|--------------------------|---------------------------|--------------------------|--------7----------7-------|-------5----------5----2--|-----6-----6-----9---------|----4-----4-----7------2--|--7-----------7-------5-5--|-------------5-------0-0--|
---------------------------|--------------------------|---------------------------|--------------------------|---------------------------|--------------------------|-------3-----------2-------|--------------------------|----2-----2------1----1----|-----------------------7--|------------3-2~--------2~-|--0----4--x-x-5--x-6------|
----------------------------|------------------------------|----------------------------|------------------------------|----------------------------|------------------------------|----------------------------|--5---------------------------|--------------------------5-|----5-7\------------------5-7-|----0--4--x-x-5--x-6--6-7---|---------4--x-x-5--x-6--7-----|
------------------------------|----------------------------|------------------------------|----------------------------|------------------------------|----------------------------|------------------------------|----------------------------|-----------------------5-6----|------------------------5-7-|--0--4--x-x-5--x-x-7-7-----7\-|--0----4--x-x-5--x-6--7-----|
------------------------------|------------------------------|------------------------------|------------------------------|------------------------------|------------------------------|------------------------------|--5-6-------------------------|----------------------------5-|------7\------------------5-7-|----0--4--x-x-5--x-6--6-6h7---|---------4--x-x-5--x-6--7-----|
-------------------------------------|-------------------|-------------------------------------|-------------------|-------------------------------------|-------------------|-------------------------------------|--2----------------|--------------------4~-----5-----5-7-|--2----------------|--0-5-6-5-3-0-5-3-0----3-0---3-0-----|--0----------------|
Solo (rithm) -------------------------|--------------------------|--------------------------|--8----8--------8-----8--|--------8-----8--8-----8--|--------8-----8--8-----8--|--7----7--------7-----7--|--------7-----7--7-----7--|--------7-----7--7-----6--|--8----8--------8-----8--|--------8-----8--8-----8--|--------8-----8--8-----7--|----------7--7-----7--0--|--0--0-----0--------0-----|-----------------------0--|-------------------------|-----------------------6--|--6--6-----6--------6-----|
--------------------------|--------------------------|-------------------------|--------8-----8--8-----3--|--3-----3-----3--3-----3--|-------3-----3--3------0-|--------6-----6--6-----2--|--2-----2-----2--2-----1--|-------1-----1--1----2---|--------7-----7--7-----3--|--3-----3-----3--3-----2--|-------2-----2--2--------|--0--0-----0--------0-----|-----2-----2--------2--2--|-------------------------|--------------------------|-----------------------0--|----0-----0--------------|
-----------2--------2-----|--------------2-----2/---|-------------------------|--2--2-----2--------2-----|-------2------2-----2/---|--8----8--------8-----8--|--1--1-----2--------2--2--|-------1------2-----2/---|--7----7--------7-----7--|--2--2-----0--0--0-----2--|-------2---------0-------|--8----8--------8-----8--|--0-----0--------------0--|----0-----0-0------------|----------7--7-----7--0--|--------------------------|-------------------------|-------------------------|
--------------------------|--------------------------|--------8-----8--8-----8--|--------8-----8--8-----8--|--------7-----7--7-----7--|--------7-----7--7-----6--|--------8-----8--8-----8--|--------8-----8--8-----7--|--0--0-----0--------0-----|-----------------------0--|-----------------------6--|--6--6-----6--------6-----|
--------------------------|--------------------------|-------------------------|--------8-----8--8-----3--|--3-----3-----3--3-----3--|-------3-----3--3------0-|--------6-----6--6-----2--|--2-----2-----2--2-----1--|-------1-----1--1----2---|--------7-----7--7-----3--|--3-----3-----3--3-----2--|-------2-----2--2--------|--0--0-----0--------0-----|-----2-----2--------2--2--|-------------------------|--------------------------|-----------------------0--|----0-----0--------------|
End Solo (Rithm) -----------2--------2-----|--------------2-----2/---|--2--2-----2--------2-----|-------2------2-----2/---|--1--1-----2--------2--2--|-------1------2-----2/---|--2--2-----0--0--0-----2--|-------2---------0-------|--0-----0--------------0--|----0-----0-0------------|--------------------------|-------------------------|
Lyrics Bridge 2 ---------------------------|--------------------------|---------------------------|--------------------------|---------------------------|--------------------------|--------7----------7-------|-------5----------5----2--|-----6-----6-----9---------|----4-----4-----7------2--|--7-----------7-------5-5--|-------------5-------0-0--|
--------------------------|------------------14-x-x-x-12--x-x--|--------------------------|--14-x-x-12-x-x-x-14-x-x-x-12--x-x--|-----7--7~--------7~------|--14-x-x-12-x-x-x-14-x-x-x-12--x-x--|-----6--6~--------6~------|--14-x-x-12-x-x-x-------------------|--------------------------|------------------------------------|---0---------0--0-----0-0-|------------------------------------|
--------------------5\4/5-------|---------------3\2/3\2/3------|----------4---------4\3/4-------|-------2-------2\1/2\1/2------|--4-5-6-7---7-6-5-4--------x-2~-|---4-5---5-4-2----------------|--------------------------------|------------------------------|--------------------------------|------------------------------|--------------------------------|---------------------------3--|
Lyrics Chorus ---------------------------|--------------------------|---------------------------|--------------------------|---------------------------|--------------------------|-------3-----------2-------|--------------------------|----2-----2------1----1----|-----------------------7--|------------3-2~--------2~-|--0----4--x-x-5--x-6------|
----------------------------|------------------------------|----------------------------|------------------------------|----------------------------|------------------------------|----------------------------|--5---------------------------|--------------------------5-|----5-7\------------------5-7-|----0--4--x-x-5--x-6--6-7---|---------4--x-x-5--x-6--7-----|
------------------------------|----------------------------|------------------------------|----------------------------|------------------------------|----------------------------|------------------------------|----------------------------|-----------------------5-6----|------------------------5-7-|--0--4--x-x-5--x-x-7-7-----7\-|--0----4--x-x-5--x-6--7-----|
------------------------------|------------------------------|------------------------------|------------------------------|------------------------------|------------------------------|------------------------------|--5-6-------------------------|----------------------------5-|------7\------------------5-7-|----0--4--x-x-5--x-6--6-6h7---|---------4--x-x-5--x-6--7-----|
Lyrics Chorus 2nd time -------------------------------------|--------------------------|-------------------------------------|--------------------------|-------------------------------------|--------------------------|-------------------------------------|--------------------------|--------------------4~-----5-----5-7-|-----------------------7--|--0-5-6-5-3-0-5-3-0----3-0---3-0-----|--0----4--x-x-5--x-6------|
----------------------------|------------------------------|----------------------------|------------------------------|----------------------------|------------------------------|----------------------------|--5---------------------------|--------------------------5-|----5-7\------------------5-7-|----0--4--x-x-5--x-6--6-7---|---------4--x-x-5--x-6--7-----|
------------------------------|----------------------------|------------------------------|----------------------------|------------------------------|----------------------------|------------------------------|----------------------------|-----------------------5-6----|------------------------5-7-|--0--4--x-x-5--x-x-7-7-----7\-|--0----4--x-x-5--x-6--7-----|
------------------------------|------------------------------|------------------------------|----------------------------7-|------------------------------|----------------------------7-|------------------------------|--5-6-----------------------7-|----------------------------5-|------7\------------------5-7-|----0--4--x-x-5--x-6--6-6h7---|---------4--x-x-5--x-6--7-----|
Fading Voice (I could not understand what they was singing or screaming) :) ----------------------------|-----------------------------|----7--7-7-7--7-7-7--7-7-7--|--7-7-7--7-7-7--7-9---9-9-9--|----7--7-7-7--7-7-7--7-7-7--|--7-7-7--7-7-7--7-9---9-9-9--|----7--7-7-7--7-7-7--7-7-7--|--7-7-7--7-7-7--7-9---9-9-9--|----7--7-7-7--7-7-7--7-7-7--|--7-7-7--7-7-7--7-7---7-7-7--|----------------------------|-----------------------------|
------------------------------|--------------------------|--7-7-7--7-7-7--7-7-7--7-7-7--|--9-9---9---9-9-9-9--9----|--7-7-7--7-7-7--7-7-7--7-7-7--|--9-9---9---9-9-9-9--9----|--7-7-7--7-7-7--7-7-7--7-7-7--|--9-9---9---9-9-9-9--9----|--7-7-7--7-7-7--7-7-7--7-7-7--|--7-7---7---7-7-7-7--7----|------------------------------|--------------------------|
--------------------------||--7--7--7---7-7-7-7--7----||--7--7--7---7-7-7-7--7----||--7--7--7---7-7-7-7--7----||--7--7--7---7-7-7-7--7----||--------------------------||
Solo guitar
------------------|------------------|--------------------|------------------|------------------|--------------------|------------------|------------------|--------------------|------------------|------------------|--------------------|------------------|------------------|--------------------|------------------|------------------|----------------0-0-|
---------------------|-------------------|-----------------------|---------------------|-------------------|-----------------------|--9~------------7-9~-|----------------7~-|----------7--9--10--9~-|---------------------|-------------------|-----------------------|---------------------|-------------------|-----------------------|---------------------|-------------------|-----------------------|
----------------------|-----------------------|----------------------------|----------------------|-----------------------|----------------------------|------------4/-16\-7~-|----------7--9--10--9--|----10-9-7-9--7~-------9----|----------------------|-----------------------|-------------------------12-|----------------------|-----------------------|----------------------------|----------------------|-----------------------|----------------------------|
-----------------------9--|----9b-9------------------|------------------------|-------------10~----------|----------12--10b---10----|--17~------------15-17--|----------9---------------|--------------------------|------------------------|--11--11------------------|--------------------------|------------------------|--------------------------|--------------------------|------------------------|--------------------------|--------------------------|------------------------|
---15---------------------18-21-|--17b-----17--17b-17--17b-17~-|------17----17~-----17-20-------|------------------------------|--------------------------------|------------------------------|--------------------------------|------------------------------|--------------------------------|------------------------------|--------------------------------|------------------------------|
------------17\-----|--22~-------22--24--24b-22b-|--------22~------22-22b22-|--------------------|----------------------------|--------------------------|--------------------|----------------------------|--------------------------|--------------------|----------------------------|--------------------------|--------------------|----------------------------|--------------------------|--------------------|----------------------------|--------------------------|
--21r-------19--21--21~---|--21--22-21-22---19-19-21----19-22-----22-|--------------------------|--------------------------22-------22b----|--------------------------|------------------------------------------|--------------------------|------------------------------------------|--------------------------|------------------------------------------|--------------------------|------------------------------------------|
------22-----22-----22-----22---------|------------------|------------------|--22b----24-----24-----22b----22--22~-|------------------|------------------|--------------------------------------|------------------|------------------|--------------------------------------|------------------|------------------|--------------------------------------|------------------|------------------|--------------------------------------|------------------|------------------|
===> LYRICS <=== Verse 1 Wars 'n rumors Of wars, no one knows what for Toys and soldiers Deployed, on some foreign shore Lords and rulers Destroy, diplomatic rapport Bridge 1 Communists, dictatorships Democracies, hypocrisies Ask not what your country can do? To a one world governmental zoo Chorus POLITICAL, POLITICAL POLITICALAMITY IT'S AN-AR-CHY POLITICAL, POLITICAL POLITICALAMITY Verse 2 Rick 'n poor Salute your country's colors Less is more When one oppresses the other Pride 'n power Decorated upon collars Bridge 2 Donkeys, bears 'n elephants All paper-trained on parliament Ask not what your country can do? To a one world governmental zoo Solo ... Bridge 2 Chorus x2 ===> End Lyrics <=== Here another one aboute Extreme :) If you find some errors please write me... transcription by Gundam gundam@rccr.cremona.it
Please rate this tab:
x1.0