Related for Broken Dreams tab

Fifth Angel – Broken Dreams tab

Band:  Fifth Angel
Album: Time Will Tell
Song:  Broken Dreams

http://www.fifthangel.net/albums.html

Copyright (c)  (Epic) (1989)
Version 1.0 - (23/07/07)

Transcribed By: Steve
Email:          stephen.elvidge1@ntlworld.com


.  - palm mute           /  - slide up to
\  - slide down to       ~  - vibrato
h  - hammer on           b  - Bend
p  - pull off            Suffixes for bend
t  - tap                 f  - full bend    h - half bend
ph - pinched harmonic    q  - quarter bend t - tap bend
*  - see comment         ^  - Hold bend    r release bend
x  - Stuccatto           ~  - vibrato bend
,  - slight palm mute    () - ghost note, sustained note
"  - tremolo note        <> - harmonic
pb - pre bend

Tuning Eb Ab Db Gb Bb Eb

 Intro

Acoustic guitar

 Guitar 1

[-----3-----3---------2-------2------|[---------5---5-----------------4----|[---4---4-------4---4-------------4--|[-2---------------1------------------|[------------------------------------|[------------------------------------|
[Guitar 2[-----------------------2-(2)--------|[-----------------------4-(4)--------|[------------------------------------|[------------------------------------|[------------------------------------|[------------------------------------|
Guitar 1
[-----3-----3----------3-------3---------5------5-2-------2------2------|[---------5---5------------------3-----3---3--------3--------------4----|[---4---4-------4----4----------------------------------4------------4--|[-2---------------/5---------------5-4----------------1-----------------|[-----------------------------------------------------------------------|[-----------------------------------------------------------------------|
[Guitar 2[------------------------7-(7)--------------------------------2-(2)-----|[------------------------8-(8)---------------3--(3)-----------4-(4)-----|[-----------------------------------------------------------------------|[-----------------------------------------------------------------------|[-----------------------------------------------------------------------|[-----------------------------------------------------------------------|
h h|---------------------------------------------------------------||---4-5-4---4-5-4---5-5-4-5p4---4-------------------------------||-5-------5-------4-----------4---4-----------------------------||-----------------------------------4-2-4-2-4p2p1-1----(1)------||-------------------------------------------------2----(2)------||---------------------------------------------------------------|
Guitar 1[---------3---3---------2-------2--------|[-----5---------5-----------------4------|[---4---4---------4---4---4---------4----|[-2-----------------1--------------------|[----------------------------------------|[----------------------------------------|
[Guitar 2[---------3-(3)-------------2-(2)--------|[---------5-(5)-------------4-(4)--------|[----------------------------------------|[----------------------------------------|[----------------------------------------|[----------------------------------------|
Guitar 1[-----3-----3--------------3--------3-----------5-------5-2-----|[---------5-(5)-5--------3---3--------3-------3-------------3---|[---4---4---------4----4------4---------4-----------------------|[-2-----------------/5--------------------5-4-----4-------------|[---------------------------------------------------------------|[---------------------------------------------------------------|
[Guitar 2[-------------------------------7-(7)---------------------------|[-------------------------------8-(8)---------------5-(5)-------|[---------------------------------------------------------------|[---------------------------------------------------------------|[---------------------------------------------------------------|[---------------------------------------------------------------|
Guitar 1
[-----2-------2--------|[---4---4-------4------|[-----------------4----|[-1--------------------|[----------------------|[----------------------|
[Guitar 2[----------------------|[---------4-(4)--------|[----------------------|[----------------------|[----------------------|[----------------------|
h h|--------------------------------------------------------------||---4-5-4---4-5-4---5-5-4-5p4---4------------------------------||-5-------5-------4-----------4---4----------------------------||-----------------------------------4-2-4-2-4p2p1-1----(1)-----||-------------------------------------------------2----(2)-----||--------------------------------------------------------------|
|-------------------------------||----7---8-------(8)------------||-/5---5------------------------||-------------------------------||-------------------------------||-------------------------------|
|-------------------------------||---7----5------(5)-------------||-5---5-------------------------||-------------------------------||-------------------------------||-------------------------------|
|-------------------------------||-4/5\4--------(4)--------------||-4/5\4--------(4)--------------||-------------------------------||-------------------------------||-------------------------------|
|-------3-2-5---3-/7-8p7-------------||-----5-(5)---5----8-----7-5-5/7-7---||------------------------7---4---8---||------------------------------------||------------------------------------||-0--(0)-----------------------------|
|-------2-0-3---2-/5-7p5---------3---||-----4-------4---/7-----5p4-4-5-5---||------------------------------------||------------------------------------||------------------------------------||-0--(0)-----------------------------|
|-------0---2---0-3-5p3-------------||-----1---3---1---5-----7\5-5/7-7\--||-----------------------7\5-5/7-7\--||-----------------------------------||-----------------------------------||-0--(0)----------------------------|
|----------------------------------||-4-------4---------------4--------||-4-----4---4---------4------------||-4--(4)------4-----4---4----------||-2--(2)--------2-2----------------||----------------------------3-2---|
Drums and bass enter
|-------3---2-5-----7---5---3-----2-0-----3-----5-0-----2---||-----5---5-------8---7---5---5-4-------5---5/7-----5-4-----||-----------------------------------------------------------||-----------------------------------------------------------||-----------------------------------------------------------||-0--(0)----------------------------------------------------|
|-----0---2-0-3---5-3-2-0-------------------------------||---1---1------/3---5-3---------4-----(4)---------4-----||---------------------------------4---(4)-----4---------||-------------------------1---4-----4-(4)---4---4-------||-------------------------2---------------2-------------||-0-----------------------------------------------------|
Verse(this isn't even 70% close as vocals drown everything and can't hear parts)
|----7p0--------------0--5p0---0---5p0----------3------5---||---------5----------------------0-----5--------3------5---||-----------4-------4--------------------4----0------------||-------------2---2----------------------------------7-----||-------------------------------------------3------5-------||-0--------------------------0-----------------------------|
|-----0---2----------------------------------0-----||-------0---0------3-------3----3------2---2-------||----------------2---2-------0----0------2---------||---2----------2-------2---------------------------||------------------------------------0-------------||-0----------------------3-------------------------|
|-----0----0---------------------0---2---------3-----5-----||-------0--0-----------------------0---0-------3-----5-----||----------------------------------------0---0-------------||---2--------can't---------------------------------7-------||-----------hear this----------------------3-----5---------||-0------------bit-------------0---------------------------|
Distorted guitar
Pick scrap|------------||------------||------------||-\-\--------||--\-\-------||------------|
Bridge
~~~~~~~~~~~|-------------------------------------------------------------||-------------------------------------------------------------||-----------------------------------0--------(0)--------------||-----------------------------------0--------(0)--------7-\---||-2--------(2)------------------------------------------7-\---||-0--------(0)--------2---------------------------------5-\---|
Chorus
|-------------------------------------------------------------------||-------------------------------------------------------------------||-------------------------------------------------------------------||-9-\7-/9--------(9)--------7--(5)--7--(5)--5--------(5)------------||-7-\5-/7--------(7)--------5--(5)--5--(5)--3--------(3)------------||-------------------------------------------------------------------|
G|--------------------------------------------------------------------||--------------------------------------------------------------------||---------------------------0--------(0)-----------------------------||-5-.7-/9--------(9)--------0--------(0)-------7--------(7)------7\--||-3-/5-/7--------(7)---------------------------5--------(5)------5\--||--------------------------------------------------------------------|
~~~ ~~~|-------------------------------------------------------------------||-------------------------------------------------------------------||-------------------------------------------------------------------||-5-/7-/9--------(9)--------7--(5)--7--(5)--5---------2--(2)--------||-3-/5-/7--------(7)--------5--(5)--5--(5)--3---3--2--0--(0)--x-2---||-------------------------------------------------------------------|
|-------------------------------------------------------------------||-------------------------------------------------------------------||---------------------------------------------9--------(9)----------||-5--------(3)--------/7--------(7)-----------9--------(9)----------||-3--------(3)--------/5--------(5)---------x-7--------(7)----------||---------------------------------------------0--------(0)----------|
Acoustic guitar
|---3---2-5----7-----5-2--------3---2---0--(0)------------------||-5---5------8---8p7-5-3------5---3---1-------------------------||-------------------------------------------------5--------7----||-----------------------------------------------5---5----7---7--||---------------------------------------------3-------/5--------||--------------------------0------------------------------------|
Rpt Verse Rpt Bridge Rpt chorus
Guitar 1[-------------------------------------------------------|[-------------------------------------------------------|[---------------------------------------------9---(9)---|[-5--------(3)--------/7--------(7)-----------9---(9)---|[-3--------(3)--------/5--------(5)---------x-7---(7)---|[---------------------------------------------0---(0)---|
[Guitar 2[---------------------------------------------0---(0)---|[---------------------------------------------0---(0)---|[-------------------------------------------------------|[-5--------(3)--------/7--------(7)---------------------|[-3--------(3)--------/5--------(5)---------x-----------|[-------------------------------------------------------|
Interlude
[--PM--] [PM] [----PM-------------------------| PM|-----------------------------------------------------------||-----------------------------------------------------------||---------7-7------7---(7)-------------7--------------------||-2-2-2-2-4/5--2-2-4---(4)---4-4-4-4-4-4-----5---(5)--------||----------------------------------------x-3-3---(3)--------||-----------------------------------------------------------|
[---------PM--------] PM [--PM-----------||---------------------------------------------------------------||---------------------------------------------------------------||---------------------------------------------------------------||---------------------2/3\2---7------(7)----------------7\5-5---||-3-3-3-3-3-3-3-3-3-3-3/5\3-5-5------(5)--------5-5-5-5-5\3\2---||---------------------------------------------------------------|
Solo h h|-------------------------------------------------------------------||------7---8---7---5---7---8-7-7b---r-7-5-7p5---5-----------------3-||-/5-----5---5---5---5---5--------------------7---7-5-4-5p4p2-4-5---||-------------------------------------------------------------------||-------------------------------------------------------------------||-------------------------------------------------------------------|
~~~~~~~~~~ ~~~~~~~trm vibrato h|--------------------------------------------------------------------------||-3----------------------------/10fb-------------------r-12-13-12-13p12-10-||---5p4p2-5p4p2-b-fb---------\---------------------------------------------||--------------------------------------------------------------------------||--------------------------------------------------------------------------||--------------------------------------------------------------------------|
|-------------------12----12-15-12----12-14-b---||-12-13-10-12-13-15----15----------15-----------||-----------------------------------------------||-----------------------------------------------||-----------------------------------------------||-----------------------------------------------|
Guitar 1
[-----------------------------------------------|[-----7---8---7---5---7---8-7-7b---r-------\----|[--5----5---5---5---5---5-----------------------|[-----------------------------------------------|[-----------------------------------------------|[-----------------------------------------------|
[Guitar 2[ ~~~~~~~~~[----14--15--14--12--14--15-14fb----------\-----|[-13---13--13--13--13--13-----------------------|[-----------------------------------------------|[-----------------------------------------------|[-----------------------------------------------|[-----------------------------------------------|
h h h h 8 ~~~~~~ph|-------7-8p7-7-8-10p8p7-8-8p7--------------------------------||-/8-10------------------------10p8-10p8p7-8------------------||--------------------------------------------9---------9---\--||-------------------------------------------------------------||-------------------------------------------------------------||-------------------------------------------------------------|
Guitar 1
[-----------------------------------|[-------3-5-3-5-/8-7-8-10-12-10-8---|[-4-2-4-----------------------------|[-----------------------------------|[-----------------------------------|[-----------------------------------|
[Guitar 2[-----------------------------------|[----------------------7--8-7-------|[-------4-5-4-5/9-8-9----------7----|[-5-4-5-----------------------------|[-----------------------------------|[-----------------------------------|
|----10p8-------12p10-------14p12----12-14/17-15fb-fb--\---||-10------10/13-------13/15-------15-----------------------||----------------------------------------------------------||----------------------------------------------------------||----------------------------------------------------------||----------------------------------------------------------|
Backing for solo
[-----------PM---------------------||--------------------------------------------||--------------------------------------------||--------------------------------------------||-5-(5)-----------------------------5/7------||-3-(3)---3-3-3-3-3-3-3-3-3-3-3-3-3-3/5-x----||--------------------------------------------| Rpt
[PM] [PM] [PM]|--------------------------------------------------------------------------||--------------------------------------------------------------------------||--------------------------------------------------------------------------||-9--------------9-------------7/11-----------------------------12-12\10-9-||-7--------------7-------------5/9--7--------------7------------10-10\9--7-||-0---(0)----0-0-0---(0)---0-0------0---(0)----0-0-0---(0)-----------------|
[PM] [PM]|-----------------------------------------||-----------------------------------------||-----------------------------------------||-5--(5)------5------(5)-----------5/7----||-3--(3)--3-3-3------(3)-------3-3-3/5-x--||-----------------------------------------|
[PM] [PM] [PM]|-----------------------------------------||-----------------------------------------||-----------------------------------------||-5--(5)------5------(5)-----------5------||-3--(3)--3-3-3------(3)-------3-3-3-3-3--||-----------------------------------------|
Gradual build [--------------------PM---------------------------------||---------------------------------------------------------||---------------------------------------------------------||---------------------------------------------------------||---------------------------------------------------------||-5-5-5-5-5-5-5-5-5-5-5-5-5-5-5-5-5-5-5-5-5-5-5-5---------||---------------------------------------------------------|
|-------------------------------------------------------------||-------------------------------------------------------------||-------------------------------------------------------------||-9--------(9)--------7--(5)--7--(5)--5--------(5)------------||-7--------(7)--------5--(5)--5--(5)--3--------(3)------------||-------------------------------------------------------------|
Rpt chorus
[PM] [PM] [PM] [PM] [PM]|-----------------------------------------------------------||-----------------------------------------------------------||-----------------------------------------------------------||-9------9------11---11------12---12--------14---14---------||-7--7-7-7--7-7-9----9---9-9-10---10--10-10-12---12---------||----------------------------------------------------10-10--|
[PM]|--------------------------------------------------------------------------||--------------------------------------------------------------------------||--------------------------------------------------------------------------||-5---(5)---5------/7----(7)---7-----(7)------9--------------(9)-----------||-3---(3)---3---3-3/5----(5)---5-----(5)------7--------------(7)-----------||---------------------------------------------0--------------(7)-----------|
END
Please rate this tab:
x1.0