Fightstar - Leper Messiah tab

I think the song is D, but i'm not too sure, can someone please let
me know in the comments section.

This was on a Kerrang album paying tribute to Master of Puppets and is
outstanding.

Intro|-------------|--------------|--------------|-------------|---------------||-------------|--------------|--------------|-------------|---------------||-------------|-----------2--|-(2)----------|-------------|---------------||-------------|-5------5--2--|-(2)----------|-5------5----|-(5)-----------||---------2-2-|-5--2-2-5--0--|-(0)------2-2-|-5--2-2-5----|-(5)------2-2--||---------0-0-|-3--0-0-3-----|----------0-0-|-3--0-0-3----|-(3)------0-0--|
|--------------|--------------|---------------|---------------|||--------------|--------------|---------------|---------------|||--------------|--------------|--------2------|---------------|||-5------5--3--|-(3)----------|-5------2------|---------------|||-5--2-2-5--3--|-(3)------2-2-|-5--2-2-0--2-2-|-----2---------|||-3--0-0-3--1--|-(1)------0-0-|-3--0-0----0-0-|-5-3---5-3-2-1-||
Riff X2||----------------|----------------|---------------|-------------------||||o---------------|----------------|---------------|------------------o||||----------------|----------------|---------------|-------------------||||--2--4---4---4--|-----4---4-5-4--|-2----------4--|-----4---4-5-4-4---||||o-2--4---4-3-4--|-----4---4-5-4--|-2--------3-4--|-----4---4-5-4-4--o||||--0--2---2---2--|-2---2---2-3-2--|-0--0-0-2---2--|-2---2---2-3-2-2---||
Next Part (Bass Solo Type Part)|----------|------------|------------||----------|------------|------------||----------|------------|------------||-2--------|-(2)--------|-(2)--------||-2--------|-(2)--------|-(2)--------||-0--------|-(0)--------|-(0)--------|
|------------|-----------------|-------------||------------|-----------------|-------------||------------|-----------------|-------------||-(2)--------|-(2)-------------|-------------||-(2)--------|-(2)--2-2----2-2-|----2-2------||-(0)--------|-(0)--0-0----0-0-|----0-0------|
||----------------|--------------||---------------|---------------------|||o---------------|-------------o||---------------|---------------------|||----------------|--------------||---------------|------------2--5-----|||----------------|--------------||---------------|-3-2-5------2--5-----|||o----2-2----2-2-|----2-2------o||----2-2----2-2-|-3-2-5--3-2-0--3-----|||-----0-0----0-0-|----0-0-------||----0-0----0-0-|-1-0-3--1-0----------|
Pre Verse Section|-------------------|----------------------||-------------------|----------------------||-------------------|----------------------||-2--------2--------|-2----------2----3-5--||-3p2------3p2------|-3p2--------3p2--3-5--||------0-0------0-0-|------0-0-0------1-3--|
|-------------------|----------------|||-------------------|----------------|||-------------------|------------2---|||-2--------2--------|-----5------2---|||-3p2------3p2------|-----5------0---|||------0-0------0-0-|-1-0-3--1-0-----||
Verse 1 and 2 X4
||--------------------|----------------------|||o-------------------|----------------------|||--------------------|----------------------|||--2--------2--------|-2----------2----3-5--|||o-3p2------3p2------|-3p2--------3p2--3-5--|||-------0-0------0-0-|------0-0-0------1-3--|
|-------------------|--------------------||-------------------|--------------------||-------------------|--------------------||-------------------|--------------------||-5s4------5s4------|-5s4------5s4--4s5--||-3s2--2-2-3s2--2-2-|-3s2--2-2-3s2--2s3--|
Pre Chorus|-----------|-----------|-----------|-----------|||-----------|-----------|-----------|-----------|||------8----|-7----6----|------8----|-7----6----|||-9----8----|-7----6----|-9----8----|-7----6----|||-7----6----|-5----4----|-7----6----|-5----4----|||-0---------|-----------|-0---------|-----------||
1st and 2nd Chorus|-----------------|-------------------|-----------------|------------------||-----------------|-------------------|-----------------|------------------||-----------------|-------------------|-----------------|------------------||-9------9s8------|-8-7------7-6------|-9------9s8------|-8S7-----7-6------||-7------7s6------|-6-5------5-4------|-7------7s6------|-6S5-----5-4------||-7--0-0-7s6--0-0-|-6-5--0-0-5-4--0-0-|-7--0-0-7s6--0-0-|-6S5-0-0-5-4--0-0-|
|---------------------|-----------------------||---------------------|-----------------------||-9--------9s8--------|-8-7--------7-6--------||-9--------9s8--------|-8-7--------7-6--------||-7--------7s6--------|-6-5--------5-4--------||-7--0-0-0-7s6--0-0-0-|-6-5--0-0-0-5-4--0-0-0-|
|-------------------------|---------------------------||-------------------------|---------------------------||-------------------------|---------------------------||-9----------9s8----------|-8s7----------7-6----------||-7----------7s6----------|-6s5----------5-4----------||-7--0-0-0-0-7s6--0-0-0-0-|-6s5--0-0-0-0-5-4--0-0-0-0-|
|---------------------------|---------------------------||---------------------------|---------------------------||---------------------------|---------------------------||---------------------------|---------------------------||-6-5----------6s5----------|-6-5----------6s5----------||-4-3--3-3-3-3-4s3--3-3-3-3-|-4-3--3-3-3-3-4s3--3-3-3-3-|BOW TO THE LEPER MESSIAH!
Riff, followed by verse, prechorus, Chorus and Riff again, then
|---------------|-------------------|||---------------|-------------------|||---------------|-------------------|||-2-------------|-2--------2--------|||-2-------------|-2--------2--------|||-0-------3-2-1-|-0--3-2-1-0--3-2-1-||
Interlude: Guitar 1 will be on top and guitar 2 will be underneath Note-Somewhere there is a pinched harmonic, you will need to hear it to know where to put it.
Guitar 1:|--------------|----------------|--------------|-----------------||--------------|----------------|--------------|-----------------||---4-0--------|-----4-0--------|---4-0--------|-----4---5---4-5-||-2-----4-2----|--2------4-2----|-2-----4-3----|-7-5---7---7-----||--------------|----------------|--------------|-----------------||--------------|----------------|--------------|-----------------|
Guitar 2:|--------------|----------------|--------------|-----------------||--------------|----------------|--------------|-----------------||--------------|----------------|--------------|-----------------||--------------|----------------|--------------|---------2-------||-2------------|-(2)------------|-3------------|-5-------0-------||-0------------|-(0)------------|-1------------|-3---------------|
Guitar 1|--------------|----------------|--------------|-----------------||--------------|----------------|--------------|-----------------||---4-0--------|-----4-0--------|---4-4-3-2----|-----4---5---4-5-||-2-----4-2----|--2------4-2----|-2------------|-7-5---7---7-----||--------------|----------------|--------------|-----------------||--------------|----------------|--------------|-----------------|
Guitar 2|--------------|----------------|--------------|-----------------||--------------|----------------|--------------|-----------------||--------------|----------------|--------------|---------4-------||--------------|----------------|-7------------|-2-------4-------||-2------------|-(2)------------|-5------------|-0-------2-------||-0------------|-(0)------------|--------------|-----------------|
Guitar 1|--------------|--------------|--------------|-----------------||--------------|--------------|--------------|-----------------||---4-0--------|---4-0--------|---4-0--------|-----4---5---4-5-||-2-----4-2----|-2-----4-2----|-2-----4-3----|-7-5---7---7-----||--------------|--------------|--------------|-----------------||--------------|--------------|--------------|-----------------|
Guitar 2|--------------|--------------|--------------|-----------------||--------------|--------------|--------------|-----------------||--------------|--------------|--------------|-----------------||--------------|--------------|--------------|---------2-------||-2------------|-2-2----------|-3------------|-5-------0-------||-0------------|-0-0----------|-1------------|-3---------------|
Guitar 1|--------------|--------------|--------------|----------------------||--------------|--------------|--------------|----------------------||---4-0--------|---4-0--------|---4-4-3-2----|----------------------||-2-----4-2----|-2-----4-2----|-2------------|-2-2--2---4-4-4--4----||--------------|--------------|--------------|-0-0--0---2-2-2--2----||--------------|--------------|--------------|----------------------|
Guitar 2|--------------|--------------|--------------|----------------------||--------------|--------------|--------------|----------------------||--------------|--------------|--------------|----------------------||--------------|--------------|-7------------|-2-2--2---4-4-4--4----||-2------------|-2-2----------|-5------------|-0-0--0---2-2-2--2----||-0------------|-0-0----------|--------------|----------------------|
HUGE RIFF Both Guitars X2
||------------------------|-----------------------|||o-----------------------|-----------------------|||------------------------|-----------------------|||----------2----------2--|---------2----------2--|||o---------2----------2--|---------2----------2--|||--0-0-0-0-0--0-0-0-0-0--|-0-0-0-0-0--0-0-0-0-0--|
|-----------------------|-------------------------||-----------------------|-------------------------||-----------------------|-------------------------||---------3----------3--|---------5----------7----||---------3----------3--|---------5----------7----||-1-1-1-1-1--1-1-1-1-1--|-3-3-3-3-3--5-5-5-5-5----|
|-----------------------|-----------------------||-----------------------|-----------------------||-----------------------|-----------------------||---------2----------2--|---------2----------2--||---------2----------2--|---------2----------2--||-0-0-0-0-0--0-0-0-0-0--|-0-0-0-0-0--0-0-0-0-0--|
|-----------------------|----------------------|||-----------------------|---------------------o|||---------7----------7--|----------------------|||---------7----------7--|-2-2--2---4-4-4--4----|||-5-5-5-5-5--5-5-5-5-5--|-0-0--0---2-2-2--2---o|||-----------------------|----------------------||
Solo Backing X2 Guitar 1
|------------------------------------|-------------------------------------||------------------------------------|-------------------------------------||------------------------------------|-------------------------------------||------------------------------------|-------------------------------------||-2-----2--2-----2--2-----2--2-----2-|--2-----2--2-----2--2-----2--2-----2-||-0-----0--0-----0--0-----0--0-----0-|--0-----0--0-----0--0-----0--0-----0-|
|---------------------------------|----------------------------------------||---------------------------------|----------------------------------------||---------------------------------|----------------------------------------||---------------------------------|--------------------2-----2--2-----2----||3---3--3-----3--3-----3--3-----3-|--5-----5--5-----5--0-----0--0-----0----||1---1--1-----1--1-----1--1-----1-|--3-----3--3-----3----------------------|
|------------------------------------|-------------------------------------||------------------------------------|-------------------------------------||------------------------------------|-------------------------------------||------------------------------------|-------------------------------------||-2-----2--2-----2--2-----2--2-----2-|--2-----2--2-----2--2-----2--2-----2-||-0-----0--0-----0--0-----0--0-----0-|--0-----0--0-----0--0-----0--0-----0-|
|---------------------------------------------------------||---------------------------------------------------------||---------------------------------------------------------||--7-------7-----7-------7-----7-------7-----7-------7----||--5-------5-----5-------5-----5-------5-----5-------5----||---------------------------------------------------------||---------------------------------------------------||---------------------------------------------------||---------------------------------------------------||--2--2---------2--------4-4--4-------4-------------||--0--0---------0--------2-2--2-------2-------------||---------------------------------------------------|
Solo Guitar 2I have put the Metallica solo down because the thing that Fightstar do is alot harder to work out.|--19p15------15-19p15------15---20p17-------17-20p17-------17-22p19-------||-------17--17--------17--17-----------18--18---------18--18---------20--20||---------16------------16---------------17-------------17-------------19--||--------------------------------------------------------------------------||--------------------------------------------------------------------------||--------------------------------------------------------------------------|
|-19-22p19------19--19p15------15-19p15------15----22-20-19-17--21-19-17---||---------20--20---------17--17--------17--17----------------------------20||-----------19-------------16------------16--------------------------------||--------------------------------------------------------------------------||--------------------------------------------------------------------------||--------------------------------------------------------------------------|
|19-16-------17-----------------------------------------------------------||------20-19----20-19-17--20-19-17--19-17-15-17p15---13-12-15--15b-15b----||----------------------------------19--------------------------------------|-------------------------------------------------------------------------||--------------------------------------------------------------------------|--------------------------------------------------------------------------|
|---------------------------------------X-15p12---------------------------||15p12--12--15--12--15b--15b-15p12---12--------15p12----12-15p12----------||-----14----------------------------13----------------14----------14-12---||-------------------------------------------------------------------------||-------------------------------------------------------------------------||-------------------------------------------------------------------------|
|-----------------(7)\---19p15----15-19p15-17p15----15-19p15-17p15---15---||-------15--(15)\--------------17----------------17----------------17-----||---12--14b-(14)\---------------------------------------------------------||14-----------------------------------------------------------------------||-------------------------------------------------------------------------||-------------------------------------------------------------------------|
|19p15----19p15-17p15--19p15-17p15--20b---20b--19p17----17--22b-22b~------||------17------------15-------------20b--------------19-------------------||-------------------------------------------------------------------------||-------------------------------------------------------------------------||-------------------------------------------------------------------------||-------------------------------------------------------------------------|
Interlude (sort of)
Guitar 1|------------------|-------------------|-----------------|-----------------||------------------|-------------------|-----------------|-----------------||----4-0-----------|-----4-0-----------|---4-0-----2-0---|-----4---5---4-5||-2-----4-2-5-4-2--|--2------4-2-5-4-2-|-2-----4-3-----3-|-7-5---7---7-----||------------------|-------------------|-----------------|-----------------||------------------|-------------------|-----------------|-----------------|
Guitar 2:|------------------|-------------------|-----------------|-----------------||o-----------------|-------------------|-----------------|-----------------||------------------|-------------------|-----------------|-----------------||------------------|-------------------|-----------------|---------2-------||o-2---------------|-(2)---------------|-3---------------|-5-------0-------||--0---------------|-(0)---------------|-1---------------|-3---------------|
Guitar 1
|-----------------|-------------------||-----------------|-------------------||---4-0-----------|-----4-0-----------||-2-----4-2-5-4-2-|--2------4-2-5-4-2-||-----------------|-------------------||-----------------|-------------------|
Guitar 2|-----------------|-------------------||-----------------|-------------------||-----------------|-------------------||-----------------|-------------------||-2---------------|-(2)---------------||-0---------------|-(0)---------------|
Guitar 1|-----------------|-----------------------|||-----------------|----------------------o|||---4-4-3-2-4-3-2-|-----------------------|||-2---------------|-2-2--2---4-4-4--4-----|||-----------------|-0-0--0---2-2-2--2----o|||-----------------|-----------------------||
Guitar 2|-----------------|-----------------------|||-----------------|----------------------o|||-----------------|-----------------------|||-7---------------|-2-2--2---4-4-4--4-----|||-5---------------|-0-0--0---2-2-2--2----o|||-----------------|-----------------------||X2
Both Guitars from now on|-------------------------|-------------------------||-------------------------|-------------------------||-------------------------|-------------------------||-------------------------|-------------------------||-------------------------|-------------------------||-5-5-5-5-5-5-5-5-5-5-5-5-|-5-5-5-5-5-5-5-5-5-5-5-5-|
|-------------------------|----------------------------|||-------------------------|----------------------------|||-------------------------|----------------------------|||-------------------------|----------------------------|||-------------------------|----------------------------|||-3-3-3-3-3-3-3-3-3-3-3-3-|-2-2-2-2-2-2-1-1-1-1-1-1----||
Third Chorus|-----------|-----------|-----------|-----------||-----------|-----------|-----------|-----------||------8----|-7----6----|------8----|-7----6----||-9----8----|-7----6----|-9----8----|-7----6----||-7----6----|-5----4----|-7----6----|-5----4----||-0---------|-----------|-0---------|-----------|
|-----------------------|-----------------------||-----------------------|-----------------------||-----------------------|-----------------------||---------5----------5--|---------5----------5--||---------5----------5--|---------5----------5--||-3-3-3-3-3--3-3-3-3-3--|-3-3-3-3-3--3-3-3-3-3--| X2
Then|-------------------------||-------------------------||-------------------------||-------------------------||7-----------6------------||---0-0-0-0-0---0-0-0-0-0-|
--------------------------|--------------------------|--------------------------|--------------------------|-5-----------4------------|---0-0-0-0-0---0-0-0-0-0--|X2
|-------------------------|-----------||-------------------------|-----------||-------------------------|-----------||-5-----------5-----------|-5----5----||-5-----------5-----------|-5----5----||-3-3-3-3-3-3-3-3-3-3-3-3-|-3----3----|
|-----------|----------|------------|------------|--------|||-----------|----------|------------|------------|--------|||-----------|----------|------------|------------|--------|||-5----5----|-5--------|-(5)--------|-(5)--------|-(5)----|||-5----5----|-5--------|-(5)--------|-(5)--------|-(5)----|||-3----3----|-3--------|-(3)--------|-(3)--------|-(3)----||
|-------------------||-------------------||-------------------||-------------------||---------2---------||-3-2-5-3---5-3-2-1-|
Then the Riff Twice Then
|------------|----------------*||------------|----------------*||------------|----------------*||-2----------|-3--2-2-2-2-----*||-2----------|-3--2-2-2-2-----*||-0----------|-1--0-0-0-0-----*|
Thats all, it should be right but any corrections are welcomed "Come crawling faster, obey your master"
Tap to rate this tab
 
# A B C D E F G H I J K L M N O P Q R S T U V W X Y Z