Fightstar - Hurt tab

Tuning: Drop D

i will do the 2nd guitar at a later date and refine this tab further.

<>

Verse|----------------------------------||----------------------------------||----------------------------------||----------------------------------| (Times 4)|--5-5-5-5-7-7-7-7-2-2-2-2-2-2-2-2-||----------------------------------|
|----------------------------------||-5-5-5-7-7-7-7-7-2-2-2-3-3-3-3-3--||----------------------------------||----------------------------------||----------------------------------||----------------------------------|
|----------------------------------||-5-5-5-7-7-7-7-7-2-2-2-0-0-0-0-0--||----------------------------------||----------------------------------| (Times 3)|----------------------------------||----------------------------------|
|----------------------------------||-5-5-5-7-7-7-7-7-2-2-2-3-3-3-3-3--||----------------------------------||----------------------------------||----------------------------------||----------------------------------|
|----------------------------------||-5-5-5-7-7-7-7-7-2-2-2-0~---------||----------------------------------||----------------------------------||----------------------------------||----------------------------------|
Pre-Chorus|--------------------------------------||-10---10---10---10---8---8---8---8----||----7----7----7----7---7---7---7---7--||--------------------------------------||--------------------------------------||--------------------------------------|
|----------------------------------||-7---7---7---7---5---5---5---5----||---7---7---7---7---7---7---7---7--||----------------------------------||----------------------------------||----------------------------------|
|--------------------------------------||-10---10---10---10---8---8---8---8----||----7----7----7----7---7---7---7---7--||--------------------------------------||--------------------------------------||--------------------------------------|
|----------------------||-7---7---7---7---5~---||---7---7---7---7-7~---||----------------------||----------------------||----------------------|
Chrous|--------------------------||--------------------------||-11c----7c----9c----9c----||--9c----5c----7c----7c----||--9c----5c----7c----7c----||--9c----5c----7c----7c----|
|------------------------||------------------------||-11c----7c----9~--------||--9c----5c----7~--------||--9c----5c----7~--------||--9c----5c----7~--------|
Verse|----------------------------------||----------------------------------||----------------------------------||----------------------------------| (Times 7)|--5-5-5-5-7-7-7-7-2-2-2-2-2-2-2-2-||----------------------------------|
|-------------------------||-------------------------||-------------------------||-------------------------||--5-5-5-5-7-7-7-7-2~-----||-------------------------|
Pre-Chorus|--------------------------------------||-10---10---10---10---8---8---8---8----||----7----7----7----7---7---7---7---7--||--------------------------------------||--------------------------------------||--------------------------------------|
|----------------------------------||-7---7---7---7---5---5---5---5----||---7---7---7---7---7---7---7---7--||----------------------------------||----------------------------------||----------------------------------|
|--------------------------------------||-10---10---10---10---8---8---8---8----||----7----7----7----7---7---7---7---7--||--------------------------------------||--------------------------------------||--------------------------------------|
|----------------------||-7---7---7---7---5~---||---7---7---7---7-7~---||----------------------||----------------------||----------------------|
Chrous|--------------------------||--------------------------||-11c----7c----9c----9c----||--9c----5c----7c----7c----| (Times 2)|--9c----5c----7c----7c----||--9c----5c----7c----7c----|
End Chorus|--------------------------||--------------------------||-11c----7c----9c----9c----||--9c----5c----7c----7c----||--9c----5c----7c----7c----||--9c----5c----7c----7c----|
|------------------------||------------------------||-11c----7c----9~--------||--9c----5c----7~--------||--9c----5c----7~--------||--9c----5c----7~--------|
Outro (picking)|--0c----0c----0c----0c----||--0c----0c----0c----0c----||-11c----7c----7c----9c----||--9c----5c----0c----7c----||--9c----5c----0c----7c----||--9c----5c----0c----7c----|
|--0c----0c----0c----0~----||--0c----0c----0c----0~----||-11c----7c----7c----9~----||--9c----5c----0c----7~----||--9c----5c----0c----7~----||--9c----5c----0c----7~----|
Tap to rate this tab
 
# A B C D E F G H I J K L M N O P Q R S T U V W X Y Z