Five Finger Death Punch - Canto 34 tab

"Canto 34"

BY: Five Finger Death Punch

Transcribed by Joe Keller
jkguitar@comcast.net

Please Do Not Copy without Permission.

INSTRUCTIONAL VIDEO COMING SOON

THANKS AND ENJOY!

Tuning:
D
A
F
C
G
C

Key:
p = pull off
h = hammer on
* = A.H.
~ = vibrato
/ \ = slide up/down
^/v = bend up/down
s = speed pick


|------------------------------------------------||------------------------------------------------||------------------------------------------------||--9-----7-----10------12---10---12-/-14---\-----||--7-----5-----8-------0-------------------------||--9-----7-----10--------------------------------|
|---------------------------------------------------------------------||---------------------------------------------------------------------||------------------9-----7---------------------------9-----7----------||-7-7-9-7-7-10-7-7---7-7---7-7-9h10-7-7-10-7-7-9-7-7---7-7---7-7-9h10-||---------------------------------------------------------------------||---------------------------------------------------------------------|
---------------------------------------------------------------------| ---------------------------------------------------------------------| ------------------9-----7---------------------------9-----7----------| -7-7-10-7-7-9-7-7---7-7---7-7-9h10-7-7-10-7-7-9-7-7---7-7---7-7-9h10-| ---------------------------------------------------------------------| ---------------------------------------------------------------------|
---------------------------------------------------------------------| ---------------------------------------------------------------------| ------------------9-----7---------------------------9-----7----------| -7-7-9-7-7-10-7-7---7-7---7-7-9h10-7-7-10-7-7-9-7-7---7-7---7-7-9h10-| ---------------------------------------------------------------------| ---------------------------------------------------------------------|
------------------------------------------------------------------------| ---------------------------------------10----10-12-13-12-13/15/17~--20^-| ---------------9----9-10-9-10-12-10-12----12----------------------------| -9-10-12-10-12---12-----------------------------------------------------| ------------------------------------------------------------------------| ------------------------------------------------------------------------|
-17-19-20-17-19----17----------------------------------------------------| ----------------20----18-20-17-18-------17-------------------------------| ----------------------------------19-17----19-------17----------19----17-| ----------------------------------------------17h19----19-17-19----19----| -------------------------------------------------------------------------| -------------------------------------------------------------------------|
--------------20^~--------------------------------------------------| -------22------------/10h12h13-12^-13p12p10----12p10----------------| -19/21----21--------------------------------12-------12-------14----| --------------------------------------------------------12/14----14-| --------------------------------------------------------------------| --------------------------------------------------------------------|
-------------------/20------------------------------------------------| -------------12h13-----17-18-------------17-18-20-20^v-18----17-18-20-| ----------12-----------------19-16-17-19------------------19----------| -------14-------------------------------------------------------------| -12h15----------------------------------------------------------------| ----------------------------------------------------------------------|
----------------17----17-19-19^-19^-v-19~---| -17-18-20-18-20----20-----------------------| --------------------------------------------| --------------------------------------------| --------------------------------------------| --------------------------------------------|
|------------------------------------------------------||------------------------------------------------------||------------------------------------------------------| 2x|-------0-0-----------------------------------------0--||-0--0--0-0---0-0----0-0-0--0-0--0-0-0---0--0-0---0-0--||-0--0--0-0---0-0----0-0-0--0-0--0-0-0---0--0-0---0-0--|
|------------------------------------------------------------------||------------------------------------------------------------------||-------------------------------------------------------------5p4--| 2x|-----2-------2-------2-------2-------2-------2---3-3-3-3-3-3------||-2-2-2---2-2-2---2-2-2---2-2-2---2-2-2---2-2-2---2-2-2-2-2-2------||-2-2-2---2-2-2---2-2-2---2-2-2---2-2-2---2-2-2---3-3-3-3-3-3------|
|----------------------------------------------------------||----------------------------------------------------------||-----9~---------14---------12---------10------------------| 3x|-7---------9 10----10-9-10----10-9-10----10-9\-5/---------||----------------------------------------------------------||----------------------------------------------------------|
|-------------------------------------------------------------||-------------------------------------------------------------||-----9~---------14---------12---------10---------------------||-7---------9 10----10-9-10----10-9-10----10-9\-5/-9--9h10p9~-||-------------------------------------------------------------||-------------------------------------------------------------|
-------------------------------------------------------12-15-17-| ---------------------------------------12-13--------13----------| ------------9----9-10-12-10-9-10-12/14-------14--14-------------| -10-9-10-12---12------------------------------------------------| ----------------------------------------------------------------| ----------------------------------------------------------------|
-12h15h19p-12h15h20p12h15h19p12h15h17p12---------5-/-17-\--| -----------------------------------------13----------------| --------------------------------------------14~\-----------| -----------------------------------------------------------| -----------------------------------------------------------| -----------------------------------------------------------|
-/15-13-12h13p12----------------------------------------------| -----------------15~--13-12h13p12-----------------------------| ----------------------------------14~-----------12-14-16-17~--| ---------------------------------------12-14-15---------------| --------------------------------------------------------------| --------------------------------------------------------------|
-------------------------------------------------10-12-13-12-10--------------| ----------------------------10-12-13-12-10-12-13----------------13-12-10-13~-| -------------------10-12-14--------------------------------------------------| ----------10-12-14-----------------------------------------------------------| -10-12-14--------------------------------------------------------------------| -----------------------------------------------------------------------------|
-------10-12-13-15-13-12-10----------------------------------------------------------| -12-13----------------------13-12-10-15-13-12-------------------10-12-13-15-13-12-10-| -------------------------------------------------------10-12-14----------------------| ----------------------------------------------10-12-14-------------------------------| -------------------------------------------------------------------------------------| -------------------------------------------------------------------------------------|
------------------------------------------------------------------| -------10---------------------------------------------------------| -14-12----14-12-10-------10---------------------------------------| -------------------14-12----14-12-10-------14-12-10---------------| -------------------------------------14-12----------14-12-10-12~--| ------------------------------------------------------------------|
|------------------------------------------------------||------------------------------------------------------||------------------------------------------------------| 2x|-------0-0-----------------------------------------0--||-0--0--0-0---0-0----0-0-0--0-0--0-0-0---0--0-0---0-0--||-0--0--0-0---0-0----0-0-0--0-0--0-0-0---0--0-0---0-0--|
|------------------------------------------------------------------||------------------------------------------------------------------||-------------------------------------------------------------5p4--| 2x|-----2-------2-------2-------2-------2-------2---3-3-3-3-3-3------||-2-2-2---2-2-2---2-2-2---2-2-2---2-2-2---2-2-2---2-2-2-2-2-2------||-2-2-2---2-2-2---2-2-2---2-2-2---2-2-2---2-2-2---3-3-3-3-3-3------|
|----------------------------------------------------------||----------------------------------------------------------||-----9~---------14---------12---------10------------------| 3x|-7---------9 10----10-9-10----10-9-10----10-9\-5/---------||----------------------------------------------------------||----------------------------------------------------------|
|----------------------------------------------------------||----------------------------------------------------------||-----9~---------14---------12---------10------------------||-7---------9 10----10-9-10----10-9-10----10-9\-5/-7--7/9--||----------------------------------------------------------||----------------------------------------------------------|
-----------------------------------------------------------| -----------------------------------------------------------| ------------9----9-10-12-10-9---------------------9-14-12^-| -10-9-10-12---12--------------12-10-9-10-12-7-/10----------| -----------------------------------------------------------| -----------------------------------------------------------|
----------------------------------------------------------------------| ----------------------------------------------------------------------| -9h12p9\8h9p8\7h9p8p7------7------------------*5p4---*5-4-------------| ----------------------10-7---7-10-7-5-------5------5------7-5---------| --------------------------------------7p5h7-------------------7-5-3-0-| ----------------------------------------------------------------------|
----------------------------------------------------------------12----| ---------------------------------------------12p8---13----14-------10-| ----------------7/9h12p9\7------/9h14p9-12^-------9----11----12-------| -------5/7h10p7------------10p7---------------------------------------| -3/5h7----------------------------------------------------------------| ----------------------------------------------------------------------|
-13----12h13p12p10----10-12-13/15----15/17----17/20----19h20p19p17----| ----10-------------13-------------13-------15-------17-------------20-| ----------------------------------------------------------------------| ----------------------------------------------------------------------| ----------------------------------------------------------------------| ----------------------------------------------------------------------|
-17-19-20/22-20-19----19----17-19-----------17-----17-19-20-22----22----22/24~-| -------------------20----20-------20-----17----20^-------------19----19--------| -------------------------------------19^---------------------------------------| -------------------------------------------------------------------------------| -------------------------------------------------------------------------------| -------------------------------------------------------------------------------|
|------------------------------------------------------||------------------------------------------------------||------------------------------------------------------| 2x|-------0-0-----------------------------------------0--||-0--0--0-0---0-0----0-0-0--0-0--0-0-0---0--0-0---0-0--||-0--0--0-0---0-0----0-0-0--0-0--0-0-0---0--0-0---0-0--|
|----------------------------------------------------------------------||----------------------------------------------------------------------||-----2---1----------2---1-1-1--------2---1-----2---4-----2---1h2p1----| 2x|-2-2---2---2---2--2---2-------2--2-2---2---2-2---2---2-2---2-------2--||----------------------------------------------------------------------||----------------------------------------------------------------------|
|-----------------------------------------------------------------||-----------------------------------------------------------------||-------------------------2-2-2-1-1-1-5-5-5-4-4-4-1-1-1-2-2-2-4-4-||-2-2-2-3-3-3-0-0-0-3-3-3-----------------------------------------||-----------------------------------------------------------------||-----------------------------------------------------------------|
GTR1 -------------------------------------------------------------------| -------------------------------------------------------------------| -------------------------2-2-2-1-1-1-5-5-5-4-4-4-9-9-9-7-7-7-4--5~-| -2-2-2-0-0-0-3-3-3-2-2-2-------------------------------------------| -------------------------------------------------------------------| -------------------------------------------------------------------|
GTR2|-------------------------------------------------------------------||-------------------------------------------------------------------||-1-1-1-------2-2-2-1-1-1-5-5-5-4-4-4-7-7-7-5-5-5-9-9-9-7-7-7-------||-------3-3-3-------------------------------------------------9--7~-||-------------------------------------------------------------------||-------------------------------------------------------------------|
|--------5------------5--------------1----------1---------------5-----||----------5------------5----------1---1----------1-----------5---5---||-----5------5------5-----5------2-------2----2-----2-------5-------5-||---7-------------7---------7--3------------3---------3--/7-----------||-0-------------0-----------------------------------------------------||---------------------------------------------------------------------|
-------5------------5-----------5----------------------------------| ---------5------------6-----------5----------9-----------9---------| ---5-------5------7-----7-----7-----7------7-----------7---7-------| -7---7----------7-----------7------------6-----6-----6-------6---7-| --------------5-----------5------------7---------7-7----------7--8-| -------------------------------------------------------------------|
|------------------------------------------------------------------||-------1--------1------------1--------1------------1--------1-----||-----4--------4---4--------4--------4---4--------4--------4---4---||---2--------2-------2----3--------3-------3----2--------2-------2-||-0--------0----------------------------------0--------0-----------||-----------------------3--------3---------------------------------|
------------------------------------------------------------------| -------6--------6--------------9---------6--------------1---------| -----7--------7---7----------7---------7---7----------4---4-------| ---7--------7-------7------6---------7-------7------2-------2-----| -5--------5-----------5--7---------5--------------0------------0--| ------------------------------------------------------------------|
Tap to rate this tab
 
# A B C D E F G H I J K L M N O P Q R S T U V W X Y Z