Five Finger Death Punch - Bad Company tab version 3

Five Finger Death Punch
Bad Company
Drop B tuning
1 C#
2 G#
3 E
4 B
5 F#
6 B

***KEEP IN MIND THIS IS BY EAR***

-Intro- h = hammer on ; p = pull off

------------------------------------------|------------6--------6-------6------------|--------------7--------7------7-----------| (repeat once)---------7---------7-------7--------------|--0-3-5---------5-------5-------0-3-------|------------------------------------------|
-------------------------------------------------------------|--------6---------------5--------------6--------------6------|-----7----7--7------5----5--5-----7----7--7-----7-----7------|---7--7----7------5--5----5-----7--7----7-----7---7----------|-5--------------3--------------5-------------5---------------|-------------------------------------------------------------|
----------------------------------------------------------------------------|-------------------6--------------------5-------------------6---------------|-------------7-------7---7--------5-------5---5-------7------7---7------5---|-----------7---7-------7-------5----5-------5-------7---7------7------5---5-|--0--3--5-------------------3---------------------5------------------3------|----------------------------------------------------------------------------|
---------------------------------5-----|--5------------------5h6p5-------5h6---|--5---5------7------------7---------7--|----5------7---7-----------------------|-----------5---------------------------|---------------------------------------|
--------------------------------------------------------------|-------------6---------------5--------------6-----------6-----|----------7----7--7------5----5--5-----7----7--7---7---7------|--------7--7----7------5--5----5-----7--7----7----7-7---------|--0-3-5--------------3--------------5-------------5-----------|--------------------------------------------------------------|
----------------------------------------------------------------------------------|-------------6---------------5--------------6-----------5---------6--------6------|----------7----7--7------5----5--5-----7----7--7---5---5-5---7---7-7-----7--------|--------7--7----7------5--5----5-----7--7----7----5-5---5---7-7---7---7-----------|--0-3-5--------------3--------------5-------------3----------5---------5----------|----------------------------------------------------------------------------------|
-Chorus- ph = pinch harmonic
-----------------------------------------------------------------|-----------------------------------------------------------------|------------5----------------7-------7-------7-------------------|--x-x--x-x--5--5-------------7-------7-------7-------------------|--x-x--x-x--3--5-------------5-------5-------5-------------------|--x-x--x-x-----5--3ph-0-0-0---0-0-0--0-0-0---0-2-3-5-3-2-0-0-----|
------------------------------------------------------------------------|------------------------------------------------------------------------|--5---------------------------------------------------------------------|--5--5------------------------------------------------------------------|--3--5-------------7h8-------5h7-------3h5-------2h3--------------------|-----5-3ph--0-0-0-----0-0-0-----0-0-0-----0-0-0----0-2-3-5-3-0-0--------|
----------------------------------|----------------------------------|--------------------------------7-|--------------------------------7-|--------7h8-------5h7---------5---|-0-0-0-----0-0-0-----0-0-0--------|
-Intro Again- b = bend the string
----------------------------------------|----------------------------------------|----------------------------------------|--17b-17p15p14--------------------------|------------------15-15h17-12--5-3------|----------------------------------------|
-Chorus- -Pre solo-
---------|--6--3---|--7--5---|--7--5---| (play 4 times)--5--3---|--5--3---|
-Solo- / = slide to fret
---------------------------------------------------------|--15--15-------------------------------------------------|----14----14-15-14--15-14--14----------------------------|-----------------------------15---15-14-15-17--14--------|---------------------------------------------------------|---------------------------------------------------------|
------------------------------------|------------------------------------|--------------14---14-15-14-15-17---|15-17-15-17---17--------------------|------------------------------------|------------------------------------|
-----18---17---15-----------18---17---15-----------18---17---15-------------|--15---15---15---13/15--15---15---15---13/15--15---15---15---13/15----------|----------------------------------------------------------------------------|----------------------------------------------------------------------------|----------------------------------------------------------------------------|----------------------------------------------------------------------------|
-----------------------------------------------------------------|-----------------------------------------------------------------|--17-15---15-17-15---15-17-15----15------------------------------|---------17----------17-----------17---17-15---15----------------|------------------------------------------------17---17-15-17----|-----------------------------------------------------------------|
------18-17-18---20-19-20-21-20------|-------------------------------------|-------------------------------------|--12-----------12--------------------|-------------------------------------|-------------------------------------|
--17-------18-------19-------20-------21-22-------|-----15-------17-------18-------19----------------|--------14-------15--------17------17-------------|--------------------------------------------------|--------------------------------------------------|--------------------------------------------------|
-Chorus- -End of the song-
-----------|--6---5----|--7---5----|--7---5----|--5---3----|--5---3----|
The last chord is this open one
------|------|------|--0---|--0---|--0---|
Tap to rate this tab
 
# A B C D E F G H I J K L M N O P Q R S T U V W X Y Z