Focus - House Of The King tab

HOUSE OF THE KING
Focus
(From the 1970 Album IN AND OUT OF FOCUS)


Music by Jan Akkerman

Gtr I (E A D G B E) - 'Jan Akkerman Acoustic'
Gtr II (E A D G B E) - 'Jan Akkerman Doubled Chords'
Gtr III (E A D G B E) - 'Jan Akkerman Fills'
Gtr IV (E A D G B E) - 'Jan Akkerman Solo Guitar'

Q=138 A E B Bm E F#m 6/8 3/4 6/8 3/4 Gtr I|-5------------------|----------------|-------------------|--------------------||-5---x--9-9-9-----x-|-7--7---7-7-x-x-|-7-7-7-x--9-9-9-x--|-10-10-10-10-10-x-x-||-6---x--9-9-9-----x-|-8--8---8-8-x-x-|-7-7-7-x--9-9-9-x--|-11-11-11-11-11-x-x-||-7---x--9-9-9-----x-|-9--9---9-9-x-x-|-9-9-9-x--9-9-9-x--|-11-11-11-11-11-x-x-||-7---x--7-7-7-----x-|-9--9---9-9-x-x-|-9-9-9-x--7-7-7-x--|--9--9--9--9--9-x-x-||-5------------------|-7--7---7-7-----|-7-7-7-------------|--------------------|
|
| Gtr II|-5-5----------------|----------------|-------------------|--------------------||-5-5-x--9-----9-x---|-7--7-x-7-7-x-x-|-7---7-x--9---9-x--|-10----10-10-10-x-x-||-6-6-x--9-----9-x---|-8--8-x-8-8-x-x-|-7---7-x--9---9-x--|-11----11-11-11-x-x-||-7-7-x--9-----9-x---|-9--9-x-9-9-x-x-|-9---9-x--9---9-x--|-11----11-11-11-x-x-||-7-7-x--7-----7-x---|-9--9-x-9-9-x-x-|-9---9-x--7---7-x--|--9-----9--9--9-x-x-||-5-5----------------|-7--7---7-7-----|-7---7-------------|--------------------|
E D G C D Am 6/8 3/4 6/8 3/4|------------------|---------------|-----------------|-0--0-0-0-x-x-||-9-9-x---7-7-7-x--|---------------|-5-5-5-x---7-7-0-|-1--1-1-1-x-x-||-9-9-x---7-7-7-x--|-4-4-4-4-4-x-x-|-5-5-5-x---7-7-0-|-2--2-2-2-x-x-||-9-9-x---7-7-7-x--|-5-5-5-5-5-x-x-|-5-5-5-x---7-7-0-|-2--2-2-2-x-x-||-7-7-x---5-5-5-x--|-5-5-5-5-5-x-x-|-3-3-3-x---5-5---|-0--0-0-0-x-x-||------------------|-3-3-3-3-3-----|-----------------|--------------|
|
|------------------|---------------|-----------------|-0--0-0-0-x-x-||-9-9-x-x-7---7-x--|---------------|-5-5-5-x-x-7-7-0-|-1--1-1-1-x-x-||-9-9-x-x-7---7-x--|-4---4-4-4-x-x-|-5-5-5-x-x-7-7-0-|-2--2-2-2-x-x-||-9-9-x-x-7---7-x--|-5---5-5-5-x-x-|-5-5-5-x-x-7-7-0-|-2--2-2-2-x-x-||-7-7-x-x-5---5-x--|-5---5-5-5-x-x-|-3-3-3-x-x-5-5---|-0--0-0-0-x-x-||------------------|-3---3-3-3-----|-----------------|--------------|
Em Bm C G D A 6/8 2/4 6/8 3/4|--------------------|-------||-3-3-3---------------|----------------||-0-x-x-x--3-x-x-x---|-5--5--||-3-3-3-x--7---7-7-x--|-5---5-5-5-x-x--||-0-x-x-x--4-x-x-x---|-5--5--||-4-4-4-x--7---7-7-x--|-6---6-6-6-x-x--||-2-x-x-x--4-x-x-x---|-5--5--||-5-5-5-x--7---7-7-x--|-7---7-7-7-x-x--||-2-x-x-x--2-x-x-x---|-3--3--||-5-5-5-x--5---5-5-x--|-7---7-7-7-x-x--||-0------------------|-------||-3-3-3---------------|-5---5-5-5------|
|
|--------------------|-------||---------------------|----------------||-0-x-x-x--3-3-3-x-x-|-5--5--||-3-3---x--7-7-7---x--|-5-5-5-5-5-x-x--||-0-x-x-x--4-4-4-x-x-|-5--5--||-4-4---x--7-7-7---x--|-6-6-6-6-6-x-x--||-2-x-x-x--4-4-4-x-x-|-5--5--||-5-5---x--7-7-7---x--|-7-7-7-7-7-x-x--||-2-x-x-x--2-2-2-x-x-|-3--3--||-5-5---x--5-5-5---x--|-7-7-7-7-7-x-x--||-0------------------|-------||-3-3-----------------|-5-5-5-5-5------|
Am D Em 6/8 3/4|----------------------|-------------------||-5-5-5-5--7---7-7-7-x-|-8-----8---8-8-x-x-||-5-5-5-5--7---7-7-7-x-|-9-----9---9-9-x-x-||-7-7-7-7--7---7-7-7-x-|-9-----9---9-9-x-x-||-7-7-7-7--5---5-5-5-x-|-7-----7---7-7-x-x-||-5-5-5-5--------------|-------------------|
|
|----------------------|-------------------||-5-5-5-5--7-7-7---x---|-8-8-8-8-8-8-8-x-x-||-5-5-5-5--7-7-7---x---|-9-9-9-9-9-9-9-x-x-||-7-7-7-7--7-7-7---x---|-9-9-9-9-9-9-9-x-x-||-7-7-7-7--5-5-5---x---|-7-7-7-7-7-7-7-x-x-||-5-5-5-5--------------|-------------------|
G D A 6/8 3/4|-3-3-3---------------|------------------||-3-3-3-x--7---7-7-x--|-5--5---5-5-x-x---||-4-4-4-x--7---7-7-x--|-6--6---6-6-x-x---||-5-5-5-x--7---7-7-x--|-7--7---7-7-x-x---||-5-5-5-x--5---5-5-x--|-7--7---7-7-x-x---||-3-3-3-x-------------|-5--5---5-5-x-x---|
|
|---------------------|------------------||-3-3-3-x--7-7-7---x--|-5----5-5-5-x-x---||-4-4-4-x--7-7-7---x--|-6----6-6-6-x-x---||-5-5-5-x--7-7-7---x--|-7----7-7-7-x-x---||-5-5-5-x--5-5-5---x--|-7----7-7-7-x-x---||-3-3-3---------------|-5----5-5-5-x-x---|
Am D Em 6/8 3/4|----------------------|------------------|||-5-5-5-5--7---7-7-7-x-|-8---8---8-8----x-|||-5-5-5-5--7---7-7-7-x-|-9---9---9-9----x-|||-7-7-7-7--7---7-7-7-x-|-9---9---9-9----x-|||-7-7-7-7--5---5-5-5-x-|-7---7---7-7----x-|||-5-5-5-5--------------|------------------||
|
|----------------------|------------------|||-5-5-5-5--7-7-7---x---|-8-8-8-8-8-8--x-x-|||-5-5-5-5--7-7-7---x---|-9-9-9-9-9-9--x-x-|||-7-7-7-7--7-7-7---x---|-9-9-9-9-9-9--x-x-|||-7-7-7-7--5-5-5---x---|-7-7-7-7-7-7--x-x-|||-5-5-5-5--------------|------------------||
F C G 6/8 3/4|-----------------------|-------------------------||-10-10-10-x---8--8-(8)-|-12--12----12-12---x--x--||-10-10-10-x---9--9-(9)-|-12--12----12-12---x--x--||-10-10-10-x--10-10-10--|-12--12----12-12---x--x--||--8--8--8-x--10-10-10--|-10--10----10-10---x--x--||--------------8--8--8--|-------------------------|
|
|-----------------------|-------------------------||-10-----------8--------|-12-----12-12-12--10-10--||-10-----------9--------|-12-----12-12-12--10-10--||-10----------10--------|-12-----12-12-12--10-10--||--8----------10--------|-10-----10-10-10---8--8--||--------------8--------|-------------------------|
F E A 6/8 3/4|----------------------|-------------------||-10-10-10-x--9-9-9-x--|-5---5-5---5-5-x-x-||-10-10-10-x--9-9-9-x--|-6---6-6---6-6-x-x-||-10-10-10-x--9-9-9-x--|-7---7-7---7-7-x-x-||--8--8--8-x--7-7-7-x--|-7---7-7---7-7-x-x-||----------------------|-5---5-5---5-5-x-x-|
|
|----------------------|-------------------||-10-10-10-x--9-9---x--|-5-5---5-5-5-5-x-x-||-10-10-10-x--9-9---x--|-6-6---6-6-6-6-x-x-||-10-10-10-x--9-9---x--|-7-7---7-7-7-7-x-x-||--8--8--8-x--7-7---x--|-7-7---7-7-7-7-x-x-||----------------------|-5-5---5-5-5-5-----|
Am D Em 6/8 3/4|--------------------|--------------------||-5-5-5-x--7---7-7-x-|-8-----8---8-8----x-||-5-5-5-x--7---7-7-x-|-9-----9---9-9-x--x-||-7-7-7-x--7---7-7-x-|-9-----9---9-9-x--x-||-7-7-7-x--5---5-5-x-|-7-----7---7-7-x--x-||-5-5-5--------------|--------------------|
|
|--------------------|--------------------||-5-5-5-x--7-7-7---x-|-8-8-8-8-8-8-8---10-||-5-5-5-x--7-7-7---x-|-9-9-9-9-9-9-9-x-10-||-7-7-7-x--7-7-7---x-|-9-9-9-9-9-9-9-x-10-||-7-7-7-x--5-5-5---x-|-7-7-7-7-7-7-7-x--8-||-5-5-5--------------|--------------------|
F G A 6/8 3/4|-------------------------|-----------|||-10-10-10-x--12-12----x--|-14--------|||-10-10-10-x--12-12----x--|-14--------|||-10-10-10-x--12-12----x--|-14--------|||--8--8--8-x--10-10----x--|-12--------|||-------------------------|-----------||
|
|-------------------------|-----------|||-10-10-10-x--12-12-12-x--|-14--------|||-10-10-10-x--12-12-12-x--|-14--------|||-10-10-10-x--12-12-12-x--|-14--------|||--8--8--8-x--10-10-10-x--|-12--------|||-------------------------|-----------||
|
| Gtr III|-------------------------|-----------|||-------------------------|-----------|||-------------------------|---------2-|||-------------------------|-------5---|||-------------------------|-----------|||-------------------------|-----------||
G D A 3/4|-------------------|---------------------||-3-3-3-x--7-7-7-x--|-5---5-----5-5-x-x---||-4-4-4-x--7-7-7-x--|-6---6-----6-6-x-x---||-5-5-5-x--7-7-7-x--|-7---7-----7-7-x-x---||-5-5-5-x--5-5-5-x--|-7---7-----7-7-x-x---||-3-3-3-------------|-5---5-----5-5-------|
|
|-------------------|---------------------||-3-3-3-x--7-7-7-x--|-5-5-5-5-5-5-5-x-x---||-4-4-4-x--7-7-7-x--|-6-6-6-6-6-6-6-x-x---||-5-5-5-x--7-7-7-x--|-7-7-7-7-7-7-7-x-x---||-5-5-5-x--5-5-5-x--|-7-7-7-7-7-7-7-x-x---||-3-3-3-------------|-5-5-5-5-5-5-5-------|
|
| ~|-------------------|---------------------||-------------------|---------------------||-4-2------2--------|---------------------||-------5----5---4--|-2-----------2-4-----||-------------------|---------------------||-------------------|---------------------|
Am D Em 6/8 3/4|---------------------|-----------------||-5-5-5-5--7---7-7-x--|-8---8---8-8-x-x-||-5-5-5-x--7---7-7-x--|-9---9---9-9-x-x-||-7-7-7-x--7---7-7-x--|-9---9---9-9-x-x-||-7-7-7-x--5---5-5-x--|-7---7---7-7-x-x-||-5-5-5---------------|-----------------|
|
|---------------------|-----------------||-5-5-5-x--7-7-7---x--|-8-8-8-8-8-8-x-x-||-5-5-5-x--7-7-7---x--|-9-9-9-9-9-9-x-x-||-7-7-7-x--7-7-7---x--|-9-9-9-9-9-9-x-x-||-7-7-7-x--5-5-5---x--|-7-7-7-7-7-7-x-x-||-5-5-5---------------|-----------------|
|
| ~|---------------------|-----------------||---------------------|-----------------||---------------------|-------------2---||-5-4---2--4---2------|-2---------5-----||------------------5--|-----------------||---------------------|-----------------|
G D A 6/8 3/4|---------------------|---------------------||-3-3-3-x--7---7-7-x--|-5-----5---5-5-x-x---||-4-4-4-x--7---7-7-x--|-6-----6---6-6-x-x---||-5-5-5-x--7---7-7-x--|-7-----7---7-7-x-x---||-5-5-5-x--5---5-5-x--|-7-----7---7-7-x-x---||-3-3-3---------------|-5-----5---5-5-------|
|
|---------------------|---------------------||-3-3-3-x--7-7-7---x--|-5-x-x-5-x-x-5-x-x---||-4-4-4-x--7-7-7---x--|-6-x-x-6-x-x-6-x-x---||-5-5-5-x--7-7-7---x--|-7-x-x-7-x-x-7-x-x---||-5-5-5-x--5-5-5---x--|-7-x-x-7-x-x-7-x-x---||-3-3-3---------------|-5-----5-----5-------|
|
| ~|---------------------|---------------------||---------------------|---------------------||-4-2------2----------|---------------------||-------5------5---4--|-2-----------2-4-----||---------------------|---------------------||---------------------|---------------------|
Am D Em 6/8 3/4|---------------------|-----------------|||-5-5-5----7---7-7-x--|-8---8---8--8--x-|||-5-5-5-x--7---7-7-x--|-9---9---9--9--x-|||-7-7-7-x--7---7-7-x--|-9---9---9--9--x-|||-7-7-7-x--5---5-5-x--|-7---7---7--7--x-|||-5-5-5-x-------------|-----------------||
|
|---------------------|-----------------|||-5-5-5----7-7-7---x--|-8-8-8-8---(8)---|||-5-5-5-x--7-7-7---x--|-9-9-9-9---(9)---|||-7-7-7-x--7-7-7---x--|-9-9-9-9---(9)---|||-7-7-7-x--5-5-5---x--|-7-7-7-7---(7)---|||-5-5-5-x-------------|-----------------||
|
|---------------------|-----------------|||---------------------|-----------------|||---------------------|-----------------|||-5-4---2--4---2------|-2---------------|||------------------5--|-----------------|||---------------------|-----------------||
F C G 6/8 3/4|--------------------------|-----------------------||-10-10-10-x---8--8--8--0--|-12-12-12----12-12-x-x-||-10-10-10-x---9--9--9--0--|-12-12-12----12-12-x-x-||-10-10-10-x--10-10-10-(0)-|-12-12-12----12-12-x-x-||--8--8--8-x--10-10-10-----|-10-10-10----10-10-x-x-||--------------8--8--8-----|-----------------------|
|
|--------------------------|-----------------------||-10-10-10-x---8--------0--|-12-------12-12-12-x-x-||-10-10-10-x---9--------0--|-12-------12-12-12-x-x-||-10-10-10-x--10-------(0)-|-12-------12-12-12-x-x-||--8--8--8-x--10-----------|-10-------10-10-10-x-x-||--------------8-----------|-----------------------|
|
|--------------------------|-----------------------||--------------------------|-----------------------||--------------------------|-----------------------||--------------------------|-----------------------||--------------------------|-----------------------||--------------------------|-----------------------|
F E A 6/8 3/4|----------------------|----------------||-10-10-10-x--9-9-9-x--|-5--5---5-5-x-x-||-10-10-10-x--9-9-9-x--|-6--6---6-6-x-x-||-10-10-10-x--9-9-9-x--|-7--7---7-7-x-x-||--8--8--8-x--7-7-7-x--|-7--7---7-7-x-x-||----------------------|-5--5---5-5-----|
|
|----------------------|----------------||-10-10----x--9-9---x--|-5----5-5-5-x-x-||-10-10----x--9-9---x--|-6----6-6-6-x-x-||-10-10----x--9-9---x--|-7----7-7-7-x-x-||--8--8----x--7-7---x--|-7----7-7-7-x-x-||----------------------|-5----5-5-5-----|
Am D Em 6/8 3/4|-----------------------|--------------------||-5-5--5--x--7-7--7--x--|-8---8-8---8-8-x-x--||-5-5--5--x--7-7--7--x--|-9---9-9---9-9-x-x--||-7-7--7--x--7-7--7--x--|-9---9-9---9-9-x-x--||-7-7--7--x--5-5--5--x--|-7---7-7---7-7-x-x--||-5-5--5----------------|--------------------|
|
|-----------------------|--------------------||-5-5-(5)-x--7-7-(7)-x--|-8-8-8-8-8-8-8-x-x--||-5-5-(5)-x--7-7-(7)-x--|-9-9-9-9-9-9-9-x-x--||-7-7-(7)-x--7-7-(7)-x--|-9-9-9-9-9-9-9-x-x--||-7-7-(7)-x--5-5-(5)-x--|-7-7-7-7-7-7-7-x-x--||-5-5-(5)---------------|--------------------|
F G A 6/8 3/4|----------------------|---------|||-10-10-10-x--12-12-x--|-14------|||-10-10-10-x--12-12-x--|-14------|||-10-10-10-x--12-12-x--|-14------|||--8--8--8-x--10-10-x--|-12------|||----------------------|---------||
|
|----------------------|---------|||-10----------12-------|-14------|||-10----------12-------|-14------|||-10----------12-------|-14------|||--8----------10-------|-12------|||----------------------|---------||
|
| Gtr III|----------------------|---------|||----------------------|---------|||----------------------|---------|||----------------------|---------|||----------------------|---------|||----------------------|---------||
D Am 6/8 3/4|-----------------|-----------------------------||--7-------7------|--5--------------5--5-5------||--7-------7------|--5--------------5--5-5------||--7-------7------|--7--------------7--7-7-x-x--||--5-------5------|--7--------------7--7-7-x-x--||-----------------|--5--------------5--5-5-x-x--|
|
|-----------------|-----------------------------||--7-------7------|--5--------------5--5-5---x--||--7-------7------|--5--------------5--5-5---x--||--7-------7------|--7--------------7--7-7---x--||--5-------5------|--7--------------7--7-7------||-----------------|--5--------------5--5-5------|
|
|-10------10------|-12----(12)----(12)----------||-13b15---13b15---|-15b17r(15)b17-(15)----------||-----------------|-----------------------------||-----------------|-----------------------------||-----------------|-----------------------------||-----------------|-----------------------------|
G Bm C D 6/8 3/4 6/8|--------------|-----------------|-----------------||-3--0-3-3-3-0-|-5-5-5-5-5-5-x-x-|--7-------7------||-4--0-4-4-4-0-|-5-5-5-5-5-5-x-x-|--7-------7------||-5--0-4-4-4-0-|-5-5-5-5-5-5-x-x-|--7-------7------||-5----2-2-2---|-3-3-3-3-3-3-x-x-|--5-------5------||-3------------|-----------------|-----------------|
|
|--------------|-----------------|-----------------||-3----3-------|-5---5-5-5-5-----|-(7)-----(7)-----||-4----4-------|-5---5-5-5-5-----|-(7)-----(7)-----||-5----4-------|-5---5-5-5-5-----|-(7)-----(7)-----||-5----2-------|-3---3-3-3-3-----|-(5)-----(5)-----||-3------------|-----------------|-----------------|
|
|--------------|-----------------|-10------10------||--------------|-----------------|-13b15---13b15---||--------------|-----------------|-----------------||--------------|-----------------|-----------------||--------------|-----------------|-----------------||--------------|-----------------|-----------------|
Am 3/4|---------------------------------||--5--------------5----5--(x)-(x)-||--5--------------5----5--(x)-(x)-||--7--------------7----7--(x)-(x)-||--7--------------7----7--(x)-(x)-||--5--------------5----5----------|
|
|---------------------------------||-(5)------------(5)---5----------||--5--------------5----5----------||--7--------------7---(7)---------||---------------------------------||---------------------------------|
|
| ~~~~|-12----(12)----(12)--------------||-15b17r(15)b17-(15)--------------||---------------------------------||---------------------------------||---------------------------------||---------------------------------|
G Bm C 6/8 3/4|---------------------|----------------------------|||--3--3-3-3--3--3-3-x-|--5---5--5---5---5---x---x--|||--4--4-4-4--4--4-4-x-|--5---5--5---5---5---x---x--|||--5--5-5-5--4--4-4-x-|--5---5--5---5---5---x---x--|||--5--5-5-5--2--2-2-x-|--3---3--3---3---3---x---x--|||--3--3-3-3-----------|----------------------------||
|
|---------------------|----------------------------|||--3---------3--------|---------------------x---x--|||--4---------4--------|--5------5---5---5---x---x--|||-(5)-------(4)-------|--5------5---5---5---x---x--|||-(5)-------(2)-------|-(3)----(3)-(3)-(3)-(x)-(x)-|||-(3)-----------------|----------------------------||
|
|---------------------|----------------------------|||---------------------|----------------------------|||---------------------|---------------------2------|||---------------------|-----------------5----------|||---------------------|----------------------------|||---------------------|----------------------------||
G D A Am D Em 6/8 3/4 6/8 2/4|-3-3-3-------------|-----------------|------------------|--------||-3-3-3-x--7-7-7-x--|-5-5-5---5-5-x-x-|-5-5-5-x--7-7-7-x-|-8--8---||-4-4-4-x--7-7-7-x--|-6-6-6---6-6-x-x-|-5-5-5-x--7-7-7-x-|-9--9---||-5-5-5-x--7-7-7-x--|-7-7-7---7-7-x-x-|-7-7-7-x--7-7-7-x-|-9--9---||-5-5-5-x--5-5-5-x--|-7-7-7---7-7-x-x-|-7-7-7-x--5-5-5-x-|-7--7---||-3-3-3-------------|-5-5-5---5-5-----|-5-5-5------------|--------|
|
|-------------------|-----------------|------------------|--------||-3---3-x--7---7-x--|-----------------|-5---5-x--7---7-x-|-8--8---||-4---4-x--7---7-x--|-6---6-6-6-6-x-x-|-5---5-x--7---7-x-|-9--9---||-5---5-x--7---7-x--|-7---7-7-7-7-x-x-|-7---7-x--7---7-x-|-9--9---||-5---5-x--5---5-x--|-7---7-7-7-7-x-x-|-7---7-x--5---5-x-|--------||-3---3-------------|-5---5-5-5-5-----|-5---5------------|--------|
|
| ~ ~|-------------------|-----------------|------------------|--------||-------------------|-----------------|------------------|--------||-4-2------2--------|-----------------|------------------|------2-||-------5----5---4--|-2---------2-4---|-5-4---2--4-2-----|-2--5---||-------------------|-----------------|----------------5-|--------||-------------------|-----------------|------------------|--------|
G D A Am Em 6/8 3/4 6/8 2/4|-------------------|---------------|------------------|--------|||-3-3-3-x--7-7-7-x--|-5-5-5-5-5-x-x-|-5-5-5----7-7-7-0-|-8--8---|||-4-4-4-x--7-7-7-5--|-6-6-6-6-6-x-x-|-5-5-5-x--7-7-7-0-|-9--9---|||-5-5-5-x--7-7-7-5--|-7-7-7-7-7-x-x-|-7-7-7-x--7-7-7-0-|-9--9---|||-5-5-5-x--5-5-5-x--|-7-7-7-7-7-x-x-|-7-7-7-x--5-5-5---|-7--7---|||-3-3-3-------------|-5-5-5-5-5-----|-5-5-5-x----------|--------||
|
|-------------------|---------------|------------------|--------|||-3-3-3-x--7-7-7-x--|-5-5-5-----x-x-|-5-5-5----7-7---0-|-8--8---|||-4-4-4-x--7-7-7-x--|-6-6-6-----x-x-|-5-5-5-x--7-7---0-|-9--9---|||-5-5-5-x--7-7-7-x--|-7-7-7-----x-x-|-7-7-7-x--7-7---0-|-9--9---|||-5-5-5-x--5-5-5-x--|-7-7-7-----x-x-|-7-7-7-x--5-5-----|-7--7---|||-3-3-3-------------|-5-5-5---------|-5-5-5-x----------|--------||
|
| ~ ~|-------------------|---------------|------------------|--------|||-------------------|---------------|------------------|--------|||-4-2------2--------|---------------|------------------|--------|||-------5----5---4--|-2-------2-4---|-5-4---2--4-2-----|-2------|||-------------------|---------------|----------------5-|--------|||-------------------|---------------|------------------|--------||
F C G 6/8 3/4|--------------------------|--------------------||-10-10-10-x---8--8--8--0--|-12-12-12-12-12-x-x-||-10-10-10-x---9--9--9--0--|-12-12-12-12-12-x-x-||-10-10-10-x--10-10-10-(0)-|-12-12-12-12-12-x-x-||--8--8--8-x--10-10-10-----|-10-10-10-10-10-x-x-||--------------8--8--8-----|--------------------|
|
|--------------------------|--------------------||-10-10-10-x---8-----------|-12-12-12-12-12-----||-10-10-10-x---9-----------|-12-12-12-12-12-----||-10-10-10-x--10-----------|-12-12-12-12-12-----||--8--8--8-x--10-----------|-10-10-10-10-10-----||--------------8-----------|--------------------|
F E A 6/8 3/4|----------------------|---------------||-10-10-10-x--9-9-9-x--|-5-5-5-5-5-----||-10-10-10-x--9-9-9-x--|-6-6-6-6-6-x-x-||-10-10-10-x--9-9-9-x--|-7-7-7-7-7-x-x-||--8--8--8-x--7-7-7-x--|-7-7-7-7-7-x-x-||----------------------|-5-5-5-5-5-x-x-|
|
|----------------------|---------------||-10-10-10-x--9--------|-5---5---5-----||-10-10-10-x--9--------|-6---6---6-----||-10-10-10-x--9--------|-7---7---7-----||--8--8--8-x--7--------|-7---7---7-----||----------------------|-5---5---5-----|
H=H Am D Em F G A 6/8 2/4 6/8 3/4|----------------|-------|-------------------------|-------|||-5-5-5-x--7-7-0-|-8--8--|-10-10-10-x--12-12-12-x--|-14----|||-5-5-5-x--7-7-0-|-9--9--|-10-10-10-x--12-12-12-x--|-14----|||-7-7-7-x--7-7-0-|-9--9--|-10-10-10-x--12-12-12-x--|-14----|||-7-7-7-x--5-5---|-7--7--|--8--8--8-x--10-10-10-x--|-12----|||-5-5-5----------|-------|-------------------------|-------||
|
|----------------|-------|-------------------------|-------|||-5-5-5-x--7-7-0-|-8--8--|-10----------12----------|-14----|||-5-5-5-x--7-7-0-|-9--9--|-10----------12----------|-14----|||-7-7-7-x--7-7-0-|-9--9--|-10----------12----------|-14----|||-7-7-7-x--5-5---|-7--7--|--8----------10----------|-12----|||-5-5-5----------|-------|-------------------------|-------||
H=76 Dm G Em7 Dm 4/4|----------------|----------------------|--7---7-7---x-x-|--5---5-5-5-5-5-5----||-------10--10-x-|-12---12------12--x-x-|--8---8-8---x-x-|--6---6-6-6-6-6-6----||-10----10--10-x-|-12---12------12--x-x-|--7---7-7---x-x-|--7---7-7-7-7-7-7----||-12----12--12-x-|-12---12------12--x-x-|--9---9-9---x-x-|--7---7-7-7-7-7-7----||-12----12--12-x-|-10---10------10--x-x-|--7---7-7---x-x-|--5---5-5-5-5-5-5----||-10----10--10-x-|-10---10------10------|----------------|---------------------|
|
| Gtr IV| ~~ ~~~~~~~~~~~~ ~~|----------------|--------------13------|-12-------------|---------------------||----------------|-15------(15)---------|-----------13---|---------------------||-------14-------|----------------------|----------------|-14------------------||----------------|----------------------|----------------|---------------------||----------------|----------------------|----------------|---------------------||----------------|----------------------|----------------|---------------------|
E5 D|-0----------0---0----------|------------------||-0----------0---0-----x--x-|--7--7-7--7---x-x-||-9----------9---9-----x--x-|--7--7-7--7---x-x-||-9----------9---9-----x--x-|--7--7-7--7---x-x-||-7----------7---7-----x--x-|--5--5-5--5---x-x-||-0----------0---0----------|------------------|
|
| ~~|---------------------------|------------------||---------------------------|------------------||----14b16-(14)-14p12-11h12-|-11---------------||---------------------------|---------12--14---||---------------------------|------------------||---------------------------|------------------|
E5|--0---0--0----------0----|-(0)----0-----0--------0-------0-----0--------||--0---0--0----------0----|-(0)----0-----0--------0-------0-----0--------||--9---9--9----------9----|-(9)----9-----9--------9-------9-----9--------||--9---9--9----------9----|-(9)----9-----9--------9-------9-----9--------||--7---7--7----------7----|-(7)----7-----7--------7-------7-----7--------||--0---0--0----------0----|-(0)----0-----0--------0-------0-----0--------|
|
| ~~|--------------12---------|----------------------------12----------------||-----------------15---12-|----------------------------------------------||-13-----12h13------------|-15--14---12----12-14-14b16------15-14-12-----||-------------------------|-------------14---------------------------14--||-------------------------|----------------------------------------------||-------------------------|----------------------------------------------|
Dm G|------------------|--------------------------------------||-10----10---10--x-|--12----12-12--------------x-----x----||-10----10---10--x-|--12----12-12--------------x-----x----||-12----12---12--x-|--12----12-12--------------x-----x----||-12----12---12--x-|--10----10-10--------------x-----x----||-10----10---10--x-|--10----10-10-------------------------|
|
| ~~ ~~~~~~~~~|------------------|-----------------------------------10-||------------------|--------------------10-10h13-10-------||-12----10-9-------|------------9-10-12-------------13----||---------------12-|-(12)---12----------------------------||------------------|--------------------------------------||------------------|--------------------------------------|
Em7|---------------------------------||---8--------------8--8-----x--x--||---7--------------7--7-----x--x--||---9--------------9--9-----x--x--||---7--------------7--7-----x--x--||---------------------------------|
|
| ~~~~~|-(10)-13-10-13b15---13b15----13--||---------------------------------||---------------------------------||---------------------------------||---------------------------------||---------------------------------|
Dm E5|--5----------------5-----5------x--x-|--0-----0--0--0--------||--6----------------6-----6------x--x-|--0-----0--0--0---x--x-||--7----------------7-----7------x--x-|--9-----9--9--9---x--x-||--7----------------7-----7------x--x-|--9-----9--9--9---x--x-||--5----------------5-----5------x--x-|--7-----7--7--7---x--x-||-------------------------------------|--0-----0--0--0--------|
|
| ~~|-10-------10-------------------------|-----------------------||----13b15----------------------------|-----------------------||-------------13-12---10----10-(10)---|-11-12-14-12-11--------||------------------------12-----------|-----------------14-12-||-------------------------------------|-----------------------||-------------------------------------|-----------------------|
H.=H D E|----------------------|----------------------------------------|||--7--7-7-------7-x-x--|--9-------------------------------------|||--7--7-7-------7-x-x--|--9-------------------------------------|||--7--7-7-------7-x-x--|--9-------------------------------------|||--5--5-5-------5-x-x--|--7-------------------------------------|||----------------------|--0-------------------------------------||
|
| ~~ ~~|----------------------|-12\--3p0-------------------------------|||----------------------|----------3p2p0-------------------------|||--------------11------|----------------3p2p0-------------------|||-14------(14)---------|----------------------3p2p0-------------|||----------------------|----------------------------3p2p0-------|||----------------------|----------------------------------3p2p0-||
Q=138 Am D Em F G A 6/8 3/4 6/8 3/4|---------------|--------------|-------------------|-----------|||-5-5----7-7-x--|-8--8-8-8-x-x-|-10-10-x--12-12-x--|-14--------|||-5-5-x--7-7-x--|-9--9-9-9-x-x-|-10-10-x--12-12-x--|-14--------|||-7-7-x--7-7-x--|-9--9-9-9-x-x-|-10-10-x--12-12-x--|-14--------|||-7-7-x--5-5-x--|-7--7-7-7-x-x-|--8--8-x--10-10-x--|-12--------|||-5-5-x---------|--------------|-------------------|-----------||
|
| Gtr II|---------------|--------------|-------------------|-----------|||---------------|--------------|-10-------12-------|-14--------|||---------------|--------------|-10-------12-------|-14--------|||---------------|--------------|-10-------12-------|-14--------|||---------------|--------------|--8-------10-------|-12--------|||---------------|--------------|-------------------|-----------||
|
| Gtr III|---------------|--------------|-------------------|-----------|||---------------|--------------|-------------------|-----------|||---------------|--------------|-------------------|---------2-|||---------------|--------------|-------------------|-------5---|||---------------|--------------|-------------------|-----------|||---------------|--------------|-------------------|-----------||
G D A 6/8 3/4||--3-3-3-------------|----------------|||o-3-3-3----7-7-7-x--|-5--5-5-5-------|||--4-4-4-x--7-7-7-x--|-6--6-6-6-(x)-x-|||--5-5-5-x--7-7-7-x--|-7--7-7-7-(x)-x-|||o-5-5-5-x--5-5-5-x--|-7--7-7-7-(x)-x-|||--3-3-3-x-----------|-5--5-5-5-(x)-x-|
|
||--------------------|----------------|||o-3--------7--------|-5--------------|||--4--------7--------|-6--------------|||--5--------7--------|-7--------------|||o-5--------5--------|-7--------------|||--3-----------------|-5--------------|
|
| ~||--------------------|----------------|||o-------------------|----------------|||--4-2------2--------|----------------|||--------5----5---4--|-2------2--4----|||o-------------------|----------------|||--------------------|----------------|
1. 2. Am D Em Em 6/8 3/4 3/4|------------------|----------------||--------------|||-5-5-5----7-7-7-x-|-8-8-8-8-8-x-x-o||-8--8-8-8-x---|||-5-5-5-x--7-7-7-x-|-9-9-9-9-9-x-x--||-9--9-9-9-x---|||-7-7-7-x--7-7-7-x-|-9-9-9-9-9-x-x--||-9--9-9-9-x---|||-7-7-7-x--5-5-5-x-|-7-7-7-7-7-x-x-o||-7--7-7-7-x---|||-5-5-5-x----------|----------------||--------------||
|
|------------------|----------------||--------------|||-5--------7-------|-8---8---8-----o||-8--8---8-----|||-5--------7-------|-9---9---9------||-9--9---9-----|||-7--------7-------|-9---9---9------||-9--9---9-----|||-7--------5-------|-7---7---7-----o||-7--7---7-----|||-5----------------|----------------||--------------||
|
| ~|------------------|----------------||--------------|||------------------|---------------o||--------------|||------------------|-----------2----||--------------|||-5-4---2--4-2-----|-2-------5------||-2------------|||----------------5-|---------------o||--------------|||------------------|----------------||--------------||
F C G 6/8 3/4|--------------------------|--------------------||-10-10-10-x---8--8--8--0--|-12-12-12-12-12-x-x-||-10-10-10-x---9--9--9--0--|-12-12-12-12-12-x-x-||-10-10-10-x--10-10-10-(0)-|-12-12-12-12-12-x-x-||--8--8--8-x--10-10-10-----|-10-10-10-10-10-x-x-||--------------8--8--8-----|--------------------|
|
|--------------------------|--------------------||-10-----------8-----------|-12-----------------||-10-----------9-----------|-12-----------------||-10----------10-----------|-12-----------------||--8----------10-----------|-10-----------------||--------------8-----------|--------------------|
|
|--------------------------|--------------------||--------------------------|--------------------||--------------------------|--------------------||--------------------------|--------------------||--------------------------|--------------------||--------------------------|--------------------|
F E A 6/8 3/4|----------------------|--------------||-10-10-10-x--9-9-9-x--|-5--5-5-5-----||-10-10-10-x--9-9-9-x--|-6--6-6-6-x-x-||-10-10-10-x--9-9-9-x--|-7--7-7-7-x-x-||--8--8--8-x--7-7-7-x--|-7--7-7-7-x-x-||----------------------|-5--5-5-5-x-x-|
|
|----------------------|--------------||-10-10-------9--------|-5--5---5-----||-10-10-------9--------|-6--6---6-----||-10-10-------9--------|-7--7---7-----||--8--8-------7--------|-7--7---7-----||----------------------|-5--5---5-----|
|
|----------------------|--------------||----------------------|--------------||----------------------|--------2-4---||----------------------|--------------||----------------------|--------------||----------------------|--------------|
Am D Em F G A 6/8 3/4 6/8 3/4|------------------|---------------|----------------------|-------*||-5-5-5----7-7-7-x-|-8-8-8-8-8-x-x-|-10-10-10-x--12-12-x--|-14----*||-5-5-5-x--7-7-7-x-|-9-9-9-9-9-x-x-|-10-10-10-x--12-12-x--|-14----*||-7-7-7-x--7-7-7-x-|-9-9-9-9-9-x-x-|-10-10-10-x--12-12-x--|-14----*||-7-7-7-x--5-5-5-x-|-7-7-7-7-7-x-x-|--8--8--8-x--10-10-x--|-12----*||-5-5-5-x----------|---------------|----------------------|-------*|
|
|------------------|---------------|----------------------|-------*||-5--------7-------|-8---8---8-----|-10----------12-------|-14----*||-5--------7-------|-9---9---9-----|-10----------12-------|-14----*||-7--------7-------|-9---9---9-----|-10----------12-------|-14----*||-7--------5-------|-7---7---7-----|--8----------10-------|-12----*||-5----------------|---------------|----------------------|-------*|
|
| ~|------------------|---------------|----------------------|-------*||------------------|---------------|----------------------|-------*||-5-4---2--4-2-----|---------------|-----2----5---4--2----|--2----*||----------------5-|-2-------------|--3----------------5--|-------*||------------------|---------------|----------------------|-------*||------------------|---------------|----------------------|-------*|
Tablature Legend ---------------- h - hammer-on p - pull-off b - bend pb - pre-bend r - bend release (if no number after the r, then release immediately) /\ - slide into or out of (from/to "nowhere") s - legato slide S - shift slide - natural harmonic [n] - artificial harmonic n(n) - tapped harmonic ~ - vibrato tr - trill T - tap TP - trem. picking PM - palm muting \n/ - tremolo bar dip; n = amount to dip \n - tremolo bar down n/ - tremolo bar up /n\ - tremolo bar inverted dip = - hold bend; also acts as connecting device for hammers/pulls <> - volume swell (louder/softer) x - on rhythm slash represents muted slash o - on rhythm slash represents single note slash Misc Legend ----------- | - bar || - double bar ||o - repeat start o|| - repeat end *| - double bar (ending) : - bar (freetime) $ - Segno & - Coda
Tap to rate this tab
 
# A B C D E F G H I J K L M N O P Q R S T U V W X Y Z